  0
SECTION
  2
HEADER
  9
$ACADVER
  1
AC1015
  9
$ACADMAINTVER
 70
    13
  9
$DWGCODEPAGE
  3
ANSI_1252
  9
$INSBASE
 10
-4578.386129711536
 20
646.1692785559278
 30
-3896.468254552404
  9
$EXTMIN
 10
-6989.924894362047
 20
-749.9690507878652
 30
-13637.63889093345
  9
$EXTMAX
 10
3966.958209302656
 20
4497.558594381629
 30
9741.17063638099
  9
$LIMMIN
 10
0.0
 20
0.0
  9
$LIMMAX
 10
297.0
 20
210.0
  9
$ORTHOMODE
 70
     0
  9
$REGENMODE
 70
     1
  9
$FILLMODE
 70
     1
  9
$QTEXTMODE
 70
     0
  9
$MIRRTEXT
 70
     1
  9
$LTSCALE
 40
1.0
  9
$ATTMODE
 70
     1
  9
$TEXTSIZE
 40
44.38007146772679
  9
$TRACEWID
 40
0.05
  9
$TEXTSTYLE
  7
STANDARD
  9
$CLAYER
  8
NOTES
  9
$CELTYPE
  6
DASHED
  9
$CECOLOR
 62
   256
  9
$CELTSCALE
 40
1.0
  9
$DISPSILH
 70
     0
  9
$DIMSCALE
 40
10.0
  9
$DIMASZ
 40
2.5
  9
$DIMEXO
 40
0.625
  9
$DIMDLI
 40
3.75
  9
$DIMRND
 40
0.0
  9
$DIMDLE
 40
0.0
  9
$DIMEXE
 40
1.25
  9
$DIMTP
 40
0.0
  9
$DIMTM
 40
0.0
  9
$DIMTXT
 40
2.5
  9
$DIMCEN
 40
2.5
  9
$DIMTSZ
 40
0.0
  9
$DIMTOL
 70
     0
  9
$DIMLIM
 70
     0
  9
$DIMTIH
 70
     1
  9
$DIMTOH
 70
     1
  9
$DIMSE1
 70
     0
  9
$DIMSE2
 70
     0
  9
$DIMTAD
 70
     0
  9
$DIMZIN
 70
     0
  9
$DIMBLK
  1

  9
$DIMASO
 70
     1
  9
$DIMSHO
 70
     1
  9
$DIMPOST
  1

  9
$DIMAPOST
  1

  9
$DIMALT
 70
     0
  9
$DIMALTD
 70
     2
  9
$DIMALTF
 40
0.03937
  9
$DIMLFAC
 40
1.0
  9
$DIMTOFL
 70
     0
  9
$DIMTVP
 40
0.0
  9
$DIMTIX
 70
     0
  9
$DIMSOXD
 70
     0
  9
$DIMSAH
 70
     0
  9
$DIMBLK1
  1

  9
$DIMBLK2
  1

  9
$DIMSTYLE
  2
STANDARD
  9
$DIMCLRD
 70
     0
  9
$DIMCLRE
 70
     0
  9
$DIMCLRT
 70
     0
  9
$DIMTFAC
 40
1.0
  9
$DIMGAP
 40
0.625
  9
$DIMJUST
 70
     0
  9
$DIMSD1
 70
     0
  9
$DIMSD2
 70
     0
  9
$DIMTOLJ
 70
     1
  9
$DIMTZIN
 70
     0
  9
$DIMALTZ
 70
     0
  9
$DIMALTTZ
 70
     0
  9
$DIMUPT
 70
     0
  9
$DIMDEC
 70
     4
  9
$DIMTDEC
 70
     4
  9
$DIMALTU
 70
     2
  9
$DIMALTTD
 70
     2
  9
$DIMTXSTY
  7
STANDARD
  9
$DIMAUNIT
 70
     0
  9
$DIMADEC
 70
     0
  9
$DIMALTRND
 40
0.0
  9
$DIMAZIN
 70
     0
  9
$DIMDSEP
 70
    46
  9
$DIMATFIT
 70
     3
  9
$DIMFRAC
 70
     0
  9
$DIMLDRBLK
  1

  9
$DIMLUNIT
 70
     2
  9
$DIMLWD
 70
    -2
  9
$DIMLWE
 70
    -2
  9
$DIMTMOVE
 70
     0
  9
$LUNITS
 70
     2
  9
$LUPREC
 70
     4
  9
$SKETCHINC
 40
0.1
  9
$FILLETRAD
 40
10.0
  9
$AUNITS
 70
     0
  9
$AUPREC
 70
     0
  9
$MENU
  1
acad
  9
$ELEVATION
 40
-1948.234127276202
  9
$PELEVATION
 40
0.0
  9
$THICKNESS
 40
0.0
  9
$LIMCHECK
 70
     0
  9
$CHAMFERA
 40
10.0
  9
$CHAMFERB
 40
10.0
  9
$CHAMFERC
 40
20.0
  9
$CHAMFERD
 40
0.0
  9
$SKPOLY
 70
     0
  9
$TDCREATE
 40
2452485.532912384
  9
$TDUCREATE
 40
2452485.116245717
  9
$TDUPDATE
 40
2453647.420724016
  9
$TDUUPDATE
 40
2453647.004057349
  9
$TDINDWG
 40
0.7467819213
  9
$TDUSRTIMER
 40
0.7467819213
  9
$USRTIMER
 70
     1
  9
$ANGBASE
 50
0.0
  9
$ANGDIR
 70
     0
  9
$PDMODE
 70
     0
  9
$PDSIZE
 40
0.0
  9
$PLINEWID
 40
0.0
  9
$SPLFRAME
 70
     0
  9
$SPLINETYPE
 70
     6
  9
$SPLINESEGS
 70
     8
  9
$HANDSEED
  5
175
  9
$SURFTAB1
 70
     6
  9
$SURFTAB2
 70
     6
  9
$SURFTYPE
 70
     6
  9
$SURFU
 70
     6
  9
$SURFV
 70
     6
  9
$UCSBASE
  2

  9
$UCSNAME
  2

  9
$UCSORG
 10
0.0
 20
0.0
 30
0.0
  9
$UCSXDIR
 10
1.0
 20
0.0
 30
0.0
  9
$UCSYDIR
 10
0.0
 20
1.0
 30
0.0
  9
$UCSORTHOREF
  2

  9
$UCSORTHOVIEW
 70
     0
  9
$UCSORGTOP
 10
0.0
 20
0.0
 30
0.0
  9
$UCSORGBOTTOM
 10
0.0
 20
0.0
 30
0.0
  9
$UCSORGLEFT
 10
0.0
 20
0.0
 30
0.0
  9
$UCSORGRIGHT
 10
0.0
 20
0.0
 30
0.0
  9
$UCSORGFRONT
 10
0.0
 20
0.0
 30
0.0
  9
$UCSORGBACK
 10
0.0
 20
0.0
 30
0.0
  9
$PUCSBASE
  2

  9
$PUCSNAME
  2

  9
$PUCSORG
 10
0.0
 20
0.0
 30
0.0
  9
$PUCSXDIR
 10
1.0
 20
0.0
 30
0.0
  9
$PUCSYDIR
 10
0.0
 20
1.0
 30
0.0
  9
$PUCSORTHOREF
  2

  9
$PUCSORTHOVIEW
 70
     0
  9
$PUCSORGTOP
 10
0.0
 20
0.0
 30
0.0
  9
$PUCSORGBOTTOM
 10
0.0
 20
0.0
 30
0.0
  9
$PUCSORGLEFT
 10
0.0
 20
0.0
 30
0.0
  9
$PUCSORGRIGHT
 10
0.0
 20
0.0
 30
0.0
  9
$PUCSORGFRONT
 10
0.0
 20
0.0
 30
0.0
  9
$PUCSORGBACK
 10
0.0
 20
0.0
 30
0.0
  9
$USERI1
 70
     0
  9
$USERI2
 70
     0
  9
$USERI3
 70
     0
  9
$USERI4
 70
     0
  9
$USERI5
 70
     0
  9
$USERR1
 40
0.0
  9
$USERR2
 40
0.0
  9
$USERR3
 40
0.0
  9
$USERR4
 40
0.0
  9
$USERR5
 40
0.0
  9
$WORLDVIEW
 70
     1
  9
$SHADEDGE
 70
     3
  9
$SHADEDIF
 70
    70
  9
$TILEMODE
 70
     1
  9
$MAXACTVP
 70
    16
  9
$PINSBASE
 10
0.0
 20
0.0
 30
0.0
  9
$PLIMCHECK
 70
     0
  9
$PEXTMIN
 10
-0.0000000000000033
 20
0.0
 30
0.0
  9
$PEXTMAX
 10
304.0653720154696
 20
196.0
 30
0.0
  9
$PLIMMIN
 10
-5.027069091796875
 20
-6.043083190917968
  9
$PLIMMAX
 10
291.89892578125
 20
204.0149154663085
  9
$UNITMODE
 70
     0
  9
$VISRETAIN
 70
     0
  9
$PLINEGEN
 70
     0
  9
$PSLTSCALE
 70
     1
  9
$TREEDEPTH
 70
  3020
  9
$CMLSTYLE
  2
STANDARD
  9
$CMLJUST
 70
     0
  9
$CMLSCALE
 40
20.0
  9
$PROXYGRAPHICS
 70
     1
  9
$MEASUREMENT
 70
     0
  9
$CELWEIGHT
370
    -1
  9
$ENDCAPS
280
     0
  9
$JOINSTYLE
280
     0
  9
$LWDISPLAY
290
     0
  9
$INSUNITS
 70
     0
  9
$HYPERLINKBASE
  1

  9
$STYLESHEET
  1

  9
$XEDIT
290
     1
  9
$CEPSNTYPE
380
     0
  9
$PSTYLEMODE
290
     1
  9
$FINGERPRINTGUID
  2
{80F3689B-09F4-4315-8B68-F9600F2948BE}
  9
$VERSIONGUID
  2
{D54674A8-1D76-4605-8876-2337B0360B7E}
  9
$EXTNAMES
290
     1
  9
$PSVPSCALE
 40
0.0
  9
$OLESTARTUP
290
     0
  0
ENDSEC
  0
SECTION
  2
CLASSES
  0
CLASS
  1
ACDBDICTIONARYWDFLT
  2
AcDbDictionaryWithDefault
  3
AutoCAD 2000
 90
        0
280
     0
281
     0
  0
CLASS
  1
ACDBPLACEHOLDER
  2
AcDbPlaceHolder
  3
AutoCAD 2000
 90
        0
280
     0
281
     0
  0
CLASS
  1
LAYOUT
  2
AcDbLayout
  3
AutoCAD 2000
 90
        0
280
     0
281
     0
  0
CLASS
  1
DICTIONARYVAR
  2
AcDbDictionaryVar
  3
AutoCAD 2000
 90
        0
280
     0
281
     0
  0
ENDSEC
  0
SECTION
  2
TABLES
  0
TABLE
  2
VPORT
  5
19
330
0
100
AcDbSymbolTable
 70
     4
  0
VPORT
  5
174
330
19
100
AcDbSymbolTableRecord
100
AcDbViewportTableRecord
  2
*Active
 70
     0
 10
0.0
 20
0.0
 11
1.0
 21
1.0
 12
849.6952954823363
 22
3554.500073112929
 13
0.0
 23
0.0
 14
10.0
 24
10.0
 15
10.0
 25
10.0
 16
-1.0
 26
-1.0
 36
1.0
 17
0.0
 27
0.0
 37
0.0
 40
6265.920814825724
 41
1.786259541984732
 42
50.0
 43
0.0
 44
0.0
 50
0.0
 51
0.0
 71
     0
 72
   100
 73
     1
 74
     0
 75
     0
 76
     0
 77
     0
 78
     0
281
     0
 65
     1
110
0.0
120
0.0
130
0.0
111
1.0
121
0.0
131
0.0
112
0.0
122
1.0
132
0.0
 79
     0
146
-1948.234127276202
  0
ENDTAB
  0
TABLE
  2
LTYPE
  5
14
330
0
100
AcDbSymbolTable
 70
     2
  0
LTYPE
  5
15
330
14
100
AcDbSymbolTableRecord
100
AcDbLinetypeTableRecord
  2
BYBLOCK
 70
     0
  3

 72
    65
 73
     0
 40
0.0
  0
LTYPE
  5
16
330
14
100
AcDbSymbolTableRecord
100
AcDbLinetypeTableRecord
  2
BYLAYER
 70
     0
  3

 72
    65
 73
     0
 40
0.0
  0
LTYPE
  5
8
330
14
100
AcDbSymbolTableRecord
100
AcDbLinetypeTableRecord
  2
CONTINUOUS
 70
     0
  3
Solid line
 72
    65
 73
     0
 40
0.0
  0
LTYPE
  5
24
330
14
100
AcDbSymbolTableRecord
100
AcDbLinetypeTableRecord
  2
DASHED
 70
     0
  3
__ __ __ __ __ __ __ __ __ __ __ __ __ __ __ __
 72
    65
 73
     2
 40
0.75
 49
0.5
 74
     0
 49
-0.25
 74
     0
  0
ENDTAB
  0
TABLE
  2
LAYER
  5
10
330
0
100
AcDbSymbolTable
 70
     3
  0
LAYER
  5
4
330
10
100
AcDbSymbolTableRecord
100
AcDbLayerTableRecord
  2
0
 70
     0
 62
     7
  6
CONTINUOUS
370
    -3
390
5
  0
LAYER
  5
29
330
10
100
AcDbSymbolTableRecord
100
AcDbLayerTableRecord
  2
MOTOR
 70
     0
 62
     7
  6
CONTINUOUS
370
    -3
390
5
  0
LAYER
  5
23
330
10
100
AcDbSymbolTableRecord
100
AcDbLayerTableRecord
  2
NOTES
 70
     0
 62
     7
  6
CONTINUOUS
370
    -3
390
5
  0
ENDTAB
  0
TABLE
  2
STYLE
  5
11
330
0
100
AcDbSymbolTable
 70
     1
  0
STYLE
  5
12
330
11
100
AcDbSymbolTableRecord
100
AcDbTextStyleTableRecord
  2
STANDARD
 70
     0
 40
0.0
 41
1.0
 50
0.0
 71
     0
 42
44.38007146772679
  3
txt.shx
  4

  0
ENDTAB
  0
TABLE
  2
VIEW
  5
17
330
0
100
AcDbSymbolTable
 70
     0
  0
ENDTAB
  0
TABLE
  2
UCS
  5
18
330
0
100
AcDbSymbolTable
 70
     0
  0
ENDTAB
  0
TABLE
  2
APPID
  5
1B
330
0
100
AcDbSymbolTable
 70
     1
  0
APPID
  5
1C
330
1B
100
AcDbSymbolTableRecord
100
AcDbRegAppTableRecord
  2
ACAD
 70
     0
  0
ENDTAB
  0
TABLE
  2
DIMSTYLE
  5
1D
330
0
100
AcDbSymbolTable
 70
     1
100
AcDbDimStyleTable
 71
     1
340
1E
  0
DIMSTYLE
105
1E
330
1D
100
AcDbSymbolTableRecord
100
AcDbDimStyleTableRecord
  2
STANDARD
 70
     0
340
12
  0
ENDTAB
  0
TABLE
  2
BLOCK_RECORD
  5
1
330
0
100
AcDbSymbolTable
 70
     0
  0
BLOCK_RECORD
  5
2
330
1
100
AcDbSymbolTableRecord
100
AcDbBlockTableRecord
  2
*MODEL_SPACE
340
A
  0
BLOCK_RECORD
  5
C
330
1
100
AcDbSymbolTableRecord
100
AcDbBlockTableRecord
  2
*Paper_Space
340
F
  0
ENDTAB
  0
ENDSEC
  0
SECTION
  2
BLOCKS
  0
BLOCK
  5
3
330
2
100
AcDbEntity
  8
0
100
AcDbBlockBegin
  2
*MODEL_SPACE
 70
     0
 10
0.0
 20
0.0
 30
0.0
  3
*MODEL_SPACE
  1

  0
ENDBLK
  5
9
330
2
100
AcDbEntity
  8
0
100
AcDbBlockEnd
  0
BLOCK
  5
D
330
C
100
AcDbEntity
 67
     1
  8
0
100
AcDbBlockBegin
  2
*Paper_Space
 70
     0
 10
0.0
 20
0.0
 30
0.0
  3
*Paper_Space
  1

  0
ENDBLK
  5
E
330
C
100
AcDbEntity
 67
     1
  8
0
100
AcDbBlockEnd
  0
ENDSEC
  0
SECTION
  2
ENTITIES
  0
LINE
  5
26
330
2
100
AcDbEntity
  8
0
100
AcDbLine
 10
1064.887726994847
 20
3301.981426200093
 30
-1965.554635351914
 11
1510.364999142368
 21
3559.177849192324
 31
-2329.285304941373
210
-0.7071067811865476
220
-0.408248290463863
230
0.5773502691896258
  0
LINE
  5
27
330
2
100
AcDbEntity
  8
0
100
AcDbLine
 10
1689.110628459568
 20
3249.581337584069
 30
-2329.285304941377
 11
1243.633356312043
 21
2992.384914591836
 31
-1965.554635351914
210
-0.7071067811865476
220
-0.408248290463863
230
0.5773502691896258
  0
ELLIPSE
  5
28
330
2
100
AcDbEntity
  8
MOTOR
100
AcDbEllipse
 10
1239.065160444291
 20
1459.819684570974
 30
-3409.412975296829
 11
97.79259581435324
 21
56.46058151816909
 31
-79.84732012246645
210
0.7071067811865475
220
-0.4082482904638631
230
0.5773502691896259
 40
0.5058511230971141
 41
0.3512654219851731
 42
3.689135309032358
  0
ELLIPSE
  5
2A
330
2
100
AcDbEntity
  8
MOTOR
100
AcDbEllipse
 10
1461.913072271441
 20
1329.656032954269
 30
-2891.038501269504
 11
97.79259581435324
 21
56.46058151816909
 31
-79.84732012246645
210
0.7071067811865475
220
-0.4082482904638631
230
0.5773502691896259
 40
0.5058511230971141
 41
0.0
 42
6.283185307179586
  0
MTEXT
  5
2B
330
2
100
AcDbEntity
  8
NOTES
  6
DASHED
100
AcDbMText
 10
-3226.340358654976
 20
4497.558594381625
 30
1948.234127276202
 40
100.0
 41
3536.0699
 71
     1
 72
     5
  1
CLIPSAL 410 4-PIN SOCKET (SUPPLIED BY MIRAGE) - REFER TO WIRING DIAGRAM FOR WIRING DETAILS
 73
     1
 44
1.0
  0
MTEXT
  5
2C
330
2
100
AcDbEntity
  8
NOTES
  6
DASHED
100
AcDbMText
 10
-4712.065545155211
 20
-316.6357174545314
 30
1948.234127276202
 40
100.0
 41
1342.886299999999
 71
     1
 72
     5
  1
OPTIONAL 2ND KEY SWITCH OR TOGGLE SWITCH
 73
     1
 44
1.0
  0
MTEXT
  5
2D
330
2
100
AcDbEntity
  8
NOTES
  6
DASHED
100
AcDbMText
 10
-251.9341899657593
 20
250.5205815959825
 30
-0.0000000000002274
 40
100.0
 41
1342.886299999999
 71
     1
 72
     5
  1
MANUAL RELEASE MECHANISM 
 73
     1
 44
1.0
  0
LEADER
  5
2E
330
2
100
AcDbEntity
  8
NOTES
  6
DASHED
100
AcDbLeader
  3
STANDARD
 76
     2
 10
1203.226498984376
 20
1232.479381774224
 30
-1948.234127276201
 10
369.2843673166148
 20
389.0416677999069
 30
-1948.234127276201
211
0.9387905052989109
221
0.3444885878525089
231
0.0000000000000001
210
-0.0000000000000001
220
0.0000000000000004
230
1.0
213
-10.05577511856877
223
1.745867529751246
233
-7.216878364870326
1001
ACAD
1000
DSTYLE
1002
{
1070
    77
1070
     0
1070
    40
1040
10.0
1070
    41
1040
10.0
1070
    42
1040
0.625
1070
    43
1040
3.75
1070
    44
1040
1.25
1070
   140
1040
2.5
1070
   141
1040
2.5
1070
   143
1040
0.03937
1070
   147
1040
0.625
1002
}
  0
ARC
  5
2F
330
2
100
AcDbEntity
  8
MOTOR
100
AcDbCircle
 10
1420.015948040068
 20
2282.258407077797
 30
9741.17063638099
 40
828.5151843688023
100
AcDbArc
 50
195.0914837456856
 51
242.3059337493532
  0
ARC
  5
30
330
2
100
AcDbEntity
  8
MOTOR
100
AcDbCircle
 10
1420.015948040068
 20
2282.258407077797
 30
9741.17063638099
 40
780.5151843688022
100
AcDbArc
 50
194.6985533433163
 51
243.6328412259292
  0
ARC
  5
31
330
2
100
AcDbEntity
  8
MOTOR
100
AcDbCircle
 10
1420.015948040068
 20
2282.258407077797
 30
9741.17063638099
 40
828.5151843688023
100
AcDbArc
 50
100.7757001875976
 51
190.0552304164729
  0
ARC
  5
32
330
2
100
AcDbEntity
  8
MOTOR
100
AcDbCircle
 10
1420.015948040068
 20
2282.258407077797
 30
9741.17063638099
 40
780.5151843688022
100
AcDbArc
 50
102.5126474334177
 51
189.3440490567421
  0
MTEXT
  5
33
330
2
100
AcDbEntity
  8
NOTES
  6
DASHED
100
AcDbMText
 10
2494.259037368258
 20
1784.136394256199
 30
1948.234127276202
 40
100.0
 41
1341.451352049707
 71
     1
 72
     5
  1
CENTRAL MOTORISATION DRUM
 73
     1
 44
1.0
  0
LEADER
  5
34
330
2
100
AcDbEntity
  8
NOTES
  6
DASHED
100
AcDbLeader
  3
STANDARD
 76
     2
 10
-3622.526703281703
 20
2928.408731799086
 30
-1948.234127276202
 10
-2882.354680980519
 20
3855.226963022106
 30
-1948.234127276201
211
-0.8971442538838815
221
-0.4417376910827668
231
-0.0000000000000001
210
0.0000000000000001
220
-0.0000000000000006
230
1.0
213
10.18394303552289
223
-0.6737736384657489
233
-7.216878364870326
1001
ACAD
1000
DSTYLE
1002
{
1070
    77
1070
     0
1070
    40
1040
10.0
1070
    41
1040
10.0
1070
    42
1040
0.625
1070
    43
1040
3.75
1070
    44
1040
1.25
1070
   140
1040
2.5
1070
   141
1040
2.5
1070
   143
1040
0.03937
1070
   147
1040
0.625
1002
}
  0
LEADER
  5
35
330
2
100
AcDbEntity
  8
NOTES
  6
DASHED
100
AcDbLeader
  3
STANDARD
 76
     2
 10
-4604.121712686167
 20
1192.783717306819
 30
-1948.234127276204
 10
-6154.12681816911
 20
795.8613156398869
 30
-1948.234127276203
213
-8.838834764831844
223
5.103103630798287
233
-7.216878364870321
1001
ACAD
1000
DSTYLE
1002
{
1070
    77
1070
     0
1070
    40
1040
10.0
1070
    41
1040
10.0
1070
    42
1040
0.625
1070
    43
1040
3.75
1070
    44
1040
1.25
1070
   140
1040
2.5
1070
   141
1040
2.5
1070
   143
1040
0.03937
1070
   147
1040
0.625
1002
}
  0
LEADER
  5
36
330
2
100
AcDbEntity
  8
NOTES
  6
DASHED
100
AcDbLeader
  3
STANDARD
 76
     2
 10
-5039.832928293876
 20
1321.336860508127
 30
-1948.234127276202
 10
-6154.126818169107
 20
795.8613156398855
 30
-1948.234127276202
213
-8.838834764831844
223
5.103103630798287
233
-7.216878364870321
1001
ACAD
1000
DSTYLE
1002
{
1070
    77
1070
     0
1070
    40
1040
10.0
1070
    41
1040
10.0
1070
    42
1040
0.625
1070
    43
1040
3.75
1070
    44
1040
1.25
1070
   140
1040
2.5
1070
   141
1040
2.5
1070
   143
1040
0.03937
1070
   147
1040
0.625
1002
}
  0
MTEXT
  5
37
330
2
100
AcDbEntity
  8
NOTES
  6
DASHED
100
AcDbMText
 10
-3535.866655695588
 20
749.7703817434257
 30
-0.0000000000002274
 40
100.0
 41
1872.590196361351
 71
     1
 72
     5
  1
OPTIONAL KEY SWITCH OR TOGGLE SWITCH\P(SUPPLIED BY MIRAGE)
 73
     1
 44
1.0
  0
ELLIPSE
  5
38
330
2
100
AcDbEntity
  8
NOTES
  6
DASHED
100
AcDbEllipse
 10
-6183.803012226981
 20
2024.771516423908
 30
-1948.234127276204
 11
-0.0000000000004979
 21
-229.9999999999992
 31
-0.0000000000000383
210
-0.0000000000000004
220
-0.0000000000000002
230
0.9999999999999998
 40
0.4243084184771421
 41
0.0
 42
3.141592653589793
  0
ARC
  5
39
330
2
100
AcDbEntity
  8
NOTES
  6
DASHED
100
AcDbCircle
 10
-5784.089969370157
 20
1475.080113283117
 30
-1948.23412727622
 40
495.3064831633459
100
AcDbArc
 50
103.7863927486033
 51
137.542230632816
  0
MTEXT
  5
3A
330
2
100
AcDbEntity
  8
NOTES
  6
DASHED
100
AcDbMText
 10
-6670.246747169405
 20
708.547212847518
 30
1948.234127276198
 40
100.0
 41
1342.886299999999
 71
     1
 72
     5
  1
KEY SWITCH CABLE\P(NOT SUPPLIED)
 73
     1
 44
1.0
  0
ELLIPSE
  5
3B
330
2
100
AcDbEntity
  8
NOTES
  6
DASHED
100
AcDbEllipse
 10
-6352.709408318167
 20
2024.771516423911
 30
-1948.234127276204
 11
0.0000000000045453
 21
229.999999999999
 31
-0.0000000000000064
210
-0.0000000000000001
220
0.0
230
1.0
 40
0.4243084184771618
 41
1.980208063734905
 42
7.455599723385334
  0
ELLIPSE
  5
3C
330
2
100
AcDbEntity
  8
NOTES
  6
DASHED
100
AcDbEllipse
 10
-6358.862370151392
 20
2021.956195891088
 30
-1948.234127276204
 11
0.0000000000009223
 21
193.1999999999998
 31
0.0
210
0.0
220
0.0
230
1.0
 40
0.4243084184771459
 41
2.048026413262032
 42
7.357436817547002
  0
LINE
  5
3D
330
2
100
AcDbEntity
  8
NOTES
  6
DASHED
100
AcDbLine
 10
-6562.336560852783
 20
1933.215473752821
 30
-1948.234127276204
 11
-6398.99756483738
 21
1933.215473752825
 31
-1948.234127276206
  0
LINE
  5
3E
330
2
100
AcDbEntity
  8
NOTES
  6
DASHED
100
AcDbLine
 10
-6547.144684068756
 20
1991.260343291644
 30
-1948.234127276205
 11
-6383.805688053354
 21
1991.260343291647
 31
-1948.234127276208
  0
LINE
  5
3F
330
2
100
AcDbEntity
  8
NOTES
  6
DASHED
100
AcDbLine
 10
-6556.818828991904
 20
1993.79232275565
 30
-1948.234127276204
 11
-6393.4798329765
 21
1993.792322755654
 31
-1948.234127276206
  0
LINE
  5
40
330
2
100
AcDbEntity
  8
NOTES
  6
DASHED
100
AcDbLine
 10
-6480.119558604077
 20
2060.937329286935
 30
-1948.234127276207
 11
-6316.780562588675
 21
2060.937329286939
 31
-1948.234127276209
  0
LINE
  5
41
330
2
100
AcDbEntity
  8
NOTES
  6
DASHED
100
AcDbLine
 10
-6580.325888314586
 20
2081.345919229304
 30
-1948.234127276208
 11
-6416.986892299185
 21
2081.345919229309
 31
-1948.23412727621
  0
LINE
  5
42
330
2
100
AcDbEntity
  8
NOTES
  6
DASHED
100
AcDbLine
 10
-6525.095597107483
 20
2104.789786938672
 30
-1948.234127276208
 11
-6361.75660109208
 21
2104.789786938676
 31
-1948.234127276211
  0
LINE
  5
43
330
2
100
AcDbEntity
  8
NOTES
  6
DASHED
100
AcDbLine
 10
-6529.002908392357
 20
2113.994835473201
 30
-1948.234127276208
 11
-6365.663912376953
 21
2113.994835473205
 31
-1948.234127276211
  0
LINE
  5
44
330
2
100
AcDbEntity
  8
NOTES
  6
DASHED
100
AcDbLine
 10
-6480.119558604079
 20
2060.937329286935
 30
-1948.234127276207
 11
-6472.807397999773
 21
2001.384560188456
 31
-1948.234127276207
  0
LINE
  5
45
330
2
100
AcDbEntity
  8
NOTES
  6
DASHED
100
AcDbLine
 10
-6482.732859516189
 20
2000.165866754405
 30
-1948.234127276207
 11
-6490.045020120501
 21
2059.718635852885
 31
-1948.234127276207
  0
LINE
  5
46
330
2
100
AcDbEntity
  8
NOTES
  6
DASHED
100
AcDbLine
 10
-6352.709408318002
 20
2254.771516423913
 30
-1948.234127276204
 11
-6317.934564963938
 21
2254.771516423912
 31
-1948.234127276205
  0
ELLIPSE
  5
47
330
2
100
AcDbEntity
  8
NOTES
  6
DASHED
100
AcDbEllipse
 10
-6317.934564963853
 20
2024.771516423911
 30
-1948.234127276202
 11
-0.0000000000004979
 21
-229.9999999999992
 31
-0.0000000000000383
210
-0.0000000000000002
220
-0.0000000000000002
230
0.9999999999999998
 40
0.4243084184771421
 41
0.0
 42
3.141592653589793
  0
LINE
  5
48
330
2
100
AcDbEntity
  8
NOTES
  6
DASHED
100
AcDbLine
 10
-6183.803012226979
 20
1794.771516423906
 30
-1948.234127276215
 11
-6317.934564963837
 21
1794.771516423911
 31
-1948.234127276208
  0
LINE
  5
49
330
2
100
AcDbEntity
  8
NOTES
  6
DASHED
100
AcDbLine
 10
-6352.709408318004
 20
1794.771516423914
 30
-1948.234127276204
 11
-6317.934564963834
 21
1794.771516423912
 31
-1948.234127276207
  0
LINE
  5
4A
330
2
100
AcDbEntity
  8
NOTES
  6
DASHED
100
AcDbLine
 10
-6316.780562588642
 20
2060.937329286939
 30
-1948.234127276209
 11
-6309.468401984337
 21
2001.38456018846
 31
-1948.234127276209
  0
LINE
  5
4B
330
2
100
AcDbEntity
  8
NOTES
  6
DASHED
100
AcDbLine
 10
-6316.780562588672
 20
2060.937329286933
 30
-1948.234127276208
 11
-6309.468401984366
 21
2001.384560188454
 31
-1948.234127276207
  0
ELLIPSE
  5
4C
330
2
100
AcDbEntity
  8
NOTES
  6
DASHED
100
AcDbEllipse
 10
-6352.709408318167
 20
2024.771516423911
 30
-1948.234127276204
 11
0.0000000000045453
 21
229.999999999999
 31
-0.0000000000000064
210
-0.0000000000000001
220
0.0
230
1.0
 40
0.4243084184771618
 41
1.672654786591458
 42
1.705899097963055
  0
ELLIPSE
  5
4D
330
2
100
AcDbEntity
  8
NOTES
  6
DASHED
100
AcDbEllipse
 10
-6358.862370151392
 20
2021.956195891088
 30
-1948.234127276204
 11
0.0000000000009223
 21
193.1999999999998
 31
0.0
210
0.0
220
0.0
230
1.0
 40
0.4243084184771459
 41
1.677477008692713
 42
1.717093371158043
  0
ELLIPSE
  5
4E
330
2
100
AcDbEntity
  8
NOTES
  6
DASHED
100
AcDbEllipse
 10
-6358.862370151392
 20
2021.956195891088
 30
-1948.234127276204
 11
0.0000000000009223
 21
193.1999999999998
 31
0.0
210
0.0
220
0.0
230
1.0
 40
0.4243084184771459
 41
1.258336565659255
 42
1.367635962609639
  0
ELLIPSE
  5
4F
330
2
100
AcDbEntity
  8
NOTES
  6
DASHED
100
AcDbEllipse
 10
-6352.709408318167
 20
2024.771516423911
 30
-1948.234127276204
 11
0.0000000000045453
 21
229.999999999999
 31
-0.0000000000000064
210
-0.0000000000000001
220
0.0
230
1.0
 40
0.4243084184771618
 41
1.322270171758074
 42
1.41289836710123
  0
LINE
  5
50
330
2
100
AcDbEntity
  8
NOTES
  6
DASHED
100
AcDbLine
 10
-6309.468401984333
 20
2001.38456018846
 30
-1948.23412727621
 11
-6319.393863500749
 21
2000.165866754409
 31
-1948.23412727621
  0
LINE
  5
51
330
2
100
AcDbEntity
  8
NOTES
  6
DASHED
100
AcDbLine
 10
-6365.663912376933
 20
2113.994835473195
 30
-1948.234127276211
 11
-6361.756601092039
 21
2104.789786938676
 31
-1948.234127276211
  0
LINE
  5
52
330
2
100
AcDbEntity
  8
NOTES
  6
DASHED
100
AcDbLine
 10
-6361.756601092038
 20
2104.78978693866
 30
-1948.234127276208
 11
-6416.986892299187
 21
2081.345919229308
 31
-1948.234127276208
  0
LINE
  5
53
330
2
100
AcDbEntity
  8
NOTES
  6
DASHED
100
AcDbLine
 10
-6393.479832976503
 20
1993.792322755655
 30
-1948.234127276207
 11
-6383.80568805337
 21
1991.260343291654
 31
-1948.234127276208
  0
LINE
  5
54
330
2
100
AcDbEntity
  8
NOTES
  6
DASHED
100
AcDbLine
 10
-6383.805688053367
 20
1991.260343291647
 30
-1948.234127276207
 11
-6398.997564837394
 21
1933.215473752825
 31
-1948.234127276208
  0
LINE
  5
55
330
2
100
AcDbEntity
  8
NOTES
  6
DASHED
100
AcDbLine
 10
-6482.732859516154
 20
2000.165866754405
 30
-1948.234127276207
 11
-6319.393863500753
 21
2000.165866754409
 31
-1948.234127276209
  0
LINE
  5
56
330
2
100
AcDbEntity
  8
NOTES
  6
DASHED
100
AcDbLine
 10
-6472.807397999773
 20
2001.384560188456
 30
-1948.234127276208
 11
-6309.46840198437
 21
2001.38456018846
 31
-1948.234127276209
  0
LINE
  5
57
330
2
100
AcDbEntity
  8
NOTES
  6
DASHED
100
AcDbLine
 10
-6472.807397999773
 20
2001.384560188456
 30
-1948.234127276207
 11
-6482.732859516189
 21
2000.165866754405
 31
-1948.234127276207
  0
LINE
  5
58
330
2
100
AcDbEntity
  8
NOTES
  6
DASHED
100
AcDbLine
 10
-6383.80568805335
 20
1991.26034329164
 30
-1948.234127276206
 11
-6398.997564837376
 21
1933.215473752818
 31
-1948.234127276206
  0
LINE
  5
59
330
2
100
AcDbEntity
  8
NOTES
  6
DASHED
100
AcDbLine
 10
-6393.479832976496
 20
1993.792322755648
 30
-1948.234127276205
 11
-6383.805688053362
 21
1991.260343291648
 31
-1948.234127276206
  0
LINE
  5
5A
330
2
100
AcDbEntity
  8
NOTES
  6
DASHED
100
AcDbLine
 10
-6365.66391237693
 20
2113.994835473189
 30
-1948.234127276208
 11
-6361.756601092036
 21
2104.78978693867
 31
-1948.234127276209
  0
LINE
  5
5B
330
2
100
AcDbEntity
  8
NOTES
  6
DASHED
100
AcDbLine
 10
-6361.756601092035
 20
2104.789786938654
 30
-1948.234127276208
 11
-6416.986892299182
 21
2081.345919229301
 31
-1948.234127276208
  0
LINE
  5
5C
330
2
100
AcDbEntity
  8
NOTES
  6
DASHED
100
AcDbLine
 10
-6309.468401984366
 20
2001.384560188454
 30
-1948.234127276207
 11
-6319.393863500784
 21
2000.165866754403
 31
-1948.234127276208
  0
LINE
  5
5D
330
2
100
AcDbEntity
  8
NOTES
  6
DASHED
100
AcDbLine
 10
-6183.803012226974
 20
2254.771516423901
 30
-1948.234127276216
 11
-6317.934564963852
 21
2254.771516423908
 31
-1948.234127276204
  0
LINE
  5
5E
330
2
100
AcDbEntity
  8
NOTES
  6
DASHED
100
AcDbLine
 10
-6547.144684068756
 20
1991.260343291643
 30
-1948.234127276205
 11
-6562.336560852783
 21
1933.215473752821
 31
-1948.234127276205
  0
LINE
  5
5F
330
2
100
AcDbEntity
  8
NOTES
  6
DASHED
100
AcDbLine
 10
-6562.336560852783
 20
1933.215473752821
 30
-1948.234127276205
 11
-6572.010705775923
 21
1935.747453216827
 31
-1948.234127276205
  0
LINE
  5
60
330
2
100
AcDbEntity
  8
NOTES
  6
DASHED
100
AcDbLine
 10
-6572.010705775923
 20
1935.747453216827
 30
-1948.234127276205
 11
-6556.818828991904
 21
1993.792322755651
 31
-1948.234127276204
  0
LINE
  5
61
330
2
100
AcDbEntity
  8
NOTES
  6
DASHED
100
AcDbLine
 10
-6556.818828991904
 20
1993.792322755651
 30
-1948.234127276204
 11
-6547.144684068769
 21
1991.26034329165
 31
-1948.234127276205
  0
LINE
  5
62
330
2
100
AcDbEntity
  8
NOTES
  6
DASHED
100
AcDbLine
 10
-6580.325888314589
 20
2081.345919229304
 30
-1948.234127276208
 11
-6584.233199599481
 21
2090.550967763832
 31
-1948.234127276208
  0
LINE
  5
63
330
2
100
AcDbEntity
  8
NOTES
  6
DASHED
100
AcDbLine
 10
-6490.045020120501
 20
2059.718635852885
 30
-1948.234127276207
 11
-6480.119558604094
 21
2060.937329286937
 31
-1948.234127276208
  0
LINE
  5
64
330
2
100
AcDbEntity
  8
NOTES
  6
DASHED
100
AcDbLine
 10
-6529.002908392337
 20
2113.994835473192
 30
-1948.234127276208
 11
-6525.095597107443
 21
2104.789786938673
 31
-1948.234127276208
  0
LINE
  5
65
330
2
100
AcDbEntity
  8
NOTES
  6
DASHED
100
AcDbLine
 10
-6584.233199599481
 20
2090.550967763832
 30
-1948.234127276208
 11
-6529.002908392337
 21
2113.994835473192
 31
-1948.234127276208
  0
LINE
  5
66
330
2
100
AcDbEntity
  8
NOTES
  6
DASHED
100
AcDbLine
 10
-6525.095597107441
 20
2104.789786938656
 30
-1948.234127276208
 11
-6580.325888314589
 21
2081.345919229304
 31
-1948.234127276208
  0
LINE
  5
67
330
2
100
AcDbEntity
  8
NOTES
  6
DASHED
100
AcDbLine
 10
-5007.713718006526
 20
2053.684104030056
 30
-1948.234127276211
 11
-5007.713718006527
 21
1646.549842007297
 31
-1948.234127276211
  0
ARC
  5
68
330
2
100
AcDbEntity
  8
NOTES
  6
DASHED
100
AcDbCircle
 10
-4249.336692309156
 20
2041.346701677226
 30
-1948.234127276205
 40
687.5476407914852
100
AcDbArc
 50
100.6054170825529
 51
178.9718253932382
  0
ARC
  5
69
330
2
100
AcDbEntity
  8
NOTES
  6
DASHED
100
AcDbCircle
 10
-4249.33669230916
 20
2041.346701677228
 30
-1948.234127276208
 40
758.4773725051974
100
AcDbArc
 50
99.60374574930192
 51
179.0679850371571
  0
ELLIPSE
  5
6A
330
2
100
AcDbEntity
  8
NOTES
  6
DASHED
100
AcDbEllipse
 10
-4375.875904421767
 20
2489.513815874404
 30
-1948.234127276203
 11
721.4940791113857
 21
-0.0000000000004806
 31
-0.0000000000000401
210
0.0000000000000001
220
0.0000000000000001
230
1.0
 40
0.6346731920743148
 41
1.570796326794896
 42
3.155094918211668
  0
ELLIPSE
  5
6B
330
2
100
AcDbEntity
  8
NOTES
  6
DASHED
100
AcDbEllipse
 10
-4387.494171035354
 20
2489.13233994831
 30
-1948.234127276205
 11
668.0500732512829
 21
-0.000000000000445
 31
-0.0000000000000742
210
0.0000000000000001
220
0.0000000000000001
230
1.0
 40
0.6346731920743149
 41
1.553404138947164
 42
3.155275362004998
  0
LINE
  5
6C
330
2
100
AcDbEntity
  8
NOTES
  6
DASHED
100
AcDbLine
 10
-4258.70811299817
 20
3432.984771769527
 30
-1948.234127276205
 11
-4258.708112998169
 21
1944.685558666381
 31
-1948.234127276208
  0
LINE
  5
6D
330
2
100
AcDbEntity
  8
NOTES
  6
DASHED
100
AcDbLine
 10
-4258.708112998169
 20
3432.984771769527
 30
-1948.234127276205
 11
-3530.639632329693
 21
3648.532526149987
 31
-1948.2341272762
  0
LINE
  5
6E
330
2
100
AcDbEntity
  8
NOTES
  6
DASHED
100
AcDbLine
 10
-4375.87590442177
 20
3432.984771769525
 30
-1948.234127276207
 11
-3647.807423753295
 21
3648.532526149984
 31
-1948.234127276202
  0
LWPOLYLINE
  5
6F
330
2
100
AcDbEntity
  8
NOTES
  6
DASHED
100
AcDbPolyline
 90
        2
 70
     0
 43
0.0
 38
-1948.234127276203
 10
-4375.875904421767
 20
3432.98477176952
 10
-4375.875904421769
 20
1944.685558666383
  0
LEADER
  5
70
330
2
100
AcDbEntity
  8
NOTES
  6
DASHED
100
AcDbLeader
  3
STANDARD
 76
     2
 10
-2881.592715838191
 20
3012.513056525372
 30
-1948.234127276204
 10
-2011.232217505101
 20
3360.181724459786
 30
-1948.234127276203
1001
ACAD
1000
DSTYLE
1002
{
1070
    77
1070
     0
1070
    40
1040
10.0
1070
    41
1040
10.0
1070
    42
1040
0.625
1070
    43
1040
3.75
1070
    44
1040
1.25
1070
   140
1040
2.5
1070
   141
1040
2.5
1070
   143
1040
0.03937
1070
   147
1040
0.625
1002
}
  0
HATCH
  5
71
330
2
100
AcDbEntity
  8
NOTES
  6
DASHED
100
AcDbHatch
 10
0.0
 20
0.0
 30
-1948.234127276215
210
0.0
220
0.0
230
1.0
  2
ANSI31
 70
     0
 71
     0
 91
        1
 92
        5
 93
        4
 72
     3
 10
-2612.908281599847
 20
2826.155489402728
 11
0.0
 21
-78.89979041430909
 40
0.4060000000000038
 50
-180.0
 51
0.0000000000002066
 73
     0
 72
     1
 10
-2612.908281599857
 20
2747.255698988416
 11
-2528.285571974554
 21
2747.255698988414
 72
     3
 10
-2528.285571974547
 20
2826.155489402726
 11
0.0
 21
-78.89979041430909
 40
0.4060000000000038
 50
360.0
 51
540.0
 73
     1
 72
     1
 10
-2528.285571974546
 20
2905.055279817034
 11
-2612.908281599839
 21
2905.055279817032
 97
        0
 75
     0
 76
     1
 52
90.0
 41
142.0196227457577
 77
     0
 78
     1
 53
134.9999999999999
 43
-2600.45832219522
 44
7610.159550780702
 45
-12.55287978813507
 46
-12.55287978813506
 79
     0
 47
0.9089270235124311
 98
        1
 10
-2538.057357177584
 20
2862.650702508688
  0
ELLIPSE
  5
72
330
2
100
AcDbEntity
  8
NOTES
  6
DASHED
100
AcDbEllipse
 10
-2528.285571974546
 20
2826.155489402722
 30
-1948.234127276211
 11
0.0
 21
-78.89979041430897
 31
0.0
210
0.0
220
0.0
230
1.0
 40
0.4060000000000036
 41
6.283185307179586
 42
9.424777960769379
  0
LINE
  5
73
330
2
100
AcDbEntity
  8
NOTES
  6
DASHED
100
AcDbLine
 10
-2612.908281599847
 20
2905.055279817031
 30
-1948.234127276212
 11
-2528.285571974546
 21
2905.055279817031
 31
-1948.234127276212
  0
ARC
  5
74
330
2
100
AcDbEntity
  8
NOTES
  6
DASHED
100
AcDbCircle
 10
-4226.34938953657
 20
1408.829927101999
 30
-1948.234127276207
 40
344.1033852905229
100
AcDbArc
 50
173.8793153241208
 51
277.1488592826485
  0
ARC
  5
75
330
2
100
AcDbEntity
  8
NOTES
  6
DASHED
100
AcDbCircle
 10
-4248.62455066944
 20
1414.211347477111
 30
-1948.23412727621
 40
391.1524762978951
100
AcDbArc
 50
176.8235378939865
 51
278.8167614672362
  0
LINE
  5
76
330
2
100
AcDbEntity
  8
NOTES
  6
DASHED
100
AcDbLine
 10
-5007.713718006518
 20
819.9439156089528
 30
-1948.234127276211
 11
-5007.713718006523
 21
1646.549842007295
 31
-1948.234127276211
  0
LINE
  5
77
330
2
100
AcDbEntity
  8
NOTES
  6
DASHED
100
AcDbLine
 10
-4936.773632588859
 20
819.9439156089519
 30
-1948.234127276208
 11
-4936.773632588862
 21
1658.887244360119
 31
-1948.234127276208
  0
MTEXT
  5
78
330
2
100
AcDbEntity
  8
NOTES
  6
DASHED
100
AcDbMText
 10
-3824.808108450572
 20
1191.521362255687
 30
-1948.234127276201
 40
30.0
 41
412.4788999999999
 71
     1
 72
     5
  1
CLOSE
 11
0.9612616959383188
 21
0.2756373558169991
 31
0.0000000000000001
 73
     1
 44
1.0
  0
LINE
  5
79
330
2
100
AcDbEntity
  8
NOTES
  6
DASHED
100
AcDbLine
 10
-4183.526532544873
 20
1471.764760317785
 30
-1948.234127276205
 11
-4183.526532544873
 21
429.9553111455841
 31
-1948.234127276207
  0
LINE
  5
7A
330
2
100
AcDbEntity
  8
NOTES
  6
DASHED
100
AcDbLine
 10
-3655.72784440665
 20
1622.648188384109
 30
-1948.234127276202
 11
-3655.727844406656
 21
580.8387392119052
 31
-1948.234127276202
  0
LINE
  5
7B
330
2
100
AcDbEntity
  8
NOTES
  6
DASHED
100
AcDbLine
 10
-4165.375780874589
 20
1471.764760317786
 30
-1948.234127276205
 11
-4165.375780874586
 21
429.9553111455832
 31
-1948.234127276206
  0
LINE
  5
7C
330
2
100
AcDbEntity
  8
NOTES
  6
DASHED
100
AcDbLine
 10
-4430.697159350265
 20
632.9683195512657
 30
-1948.234127276202
 11
-4183.526532544874
 21
703.8433562828259
 31
-1948.234127276205
  0
LINE
  5
7D
330
2
100
AcDbEntity
  8
NOTES
  6
DASHED
100
AcDbLine
 10
-4545.839402446252
 20
823.5076688957779
 30
-1948.234127276205
 11
-4545.839402446254
 21
-218.3017802764222
 31
-1948.234127276207
  0
LINE
  5
7E
330
2
100
AcDbEntity
  8
NOTES
  6
DASHED
100
AcDbLine
 10
-4527.688650775968
 20
823.5076688957802
 30
-1948.234127276205
 11
-4527.688650775965
 21
-218.3017802764227
 31
-1948.234127276206
  0
LINE
  5
7F
330
2
100
AcDbEntity
  8
NOTES
  6
DASHED
100
AcDbLine
 10
-4018.040714308033
 20
473.5744810219639
 30
-1948.234127276203
 11
-4018.040714308035
 21
-67.41835221010115
 31
-1948.234127276202
  0
LINE
  5
80
330
2
100
AcDbEntity
  8
NOTES
  6
DASHED
100
AcDbLine
 10
-4527.688650775966
 20
-218.3017802764238
 30
-1948.234127276204
 11
-4018.040714308034
 21
-67.4183522101016
 31
-1948.234127276201
  0
LINE
  5
81
330
2
100
AcDbEntity
  8
NOTES
  6
DASHED
100
AcDbLine
 10
-4545.839402446252
 20
-218.3017802764229
 30
-1948.234127276205
 11
-4527.688650775972
 21
-218.3017802764234
 31
-1948.234127276205
  0
ELLIPSE
  5
82
330
2
100
AcDbEntity
  8
NOTES
  6
DASHED
100
AcDbEllipse
 10
-4261.645870310094
 20
-73.96662040067076
 30
-1948.234127276204
 11
0.0000000000000466
 21
22.08401610795941
 31
-0.0000000000000025
210
0.0000000000000001
220
0.0000000000000001
230
0.9999999999999998
 40
0.424308418477142
 41
0.0
 42
6.283185307179586
  0
LINE
  5
83
330
2
100
AcDbEntity
  8
NOTES
  6
DASHED
100
AcDbLine
 10
-4165.375780874588
 20
429.9553111455829
 30
-1948.234127276204
 11
-3655.727844406655
 21
580.8387392119043
 31
-1948.2341272762
  0
ELLIPSE
  5
84
330
2
100
AcDbEntity
  8
NOTES
  6
DASHED
100
AcDbEllipse
 10
-4193.553006394378
 20
351.732000452512
 30
-1948.234127276205
 11
0.0000000000001134
 21
55.21004026989856
 31
-0.0000000000000031
210
0.0000000000000001
220
0.0000000000000001
230
1.0
 40
0.4243084184771421
 41
0.0
 42
6.283185307179586
  0
ELLIPSE
  5
85
330
2
100
AcDbEntity
  8
NOTES
  6
DASHED
100
AcDbEllipse
 10
-4202.075111973757
 20
351.7320004525117
 30
-1948.234127276202
 11
0.0000000000002268
 21
110.4200805397971
 31
-0.0000000000000061
210
0.0000000000000003
220
0.0000000000000001
230
1.0
 40
0.4243084184771421
 41
5.876142106662355
 42
11.78282515711464
  0
ELLIPSE
  5
86
330
2
100
AcDbEntity
  8
NOTES
  6
DASHED
100
AcDbEllipse
 10
-4221.97200149291
 20
351.7320004525115
 30
-1948.234127276201
 11
0.0000000000003611
 21
180.6874045196678
 31
0.00000000000001
210
0.0000000000000004
220
-0.0000000000000001
230
0.9999999999999998
 40
0.4243084184771421
 41
0.1672171892410344
 42
2.9743754643488
  0
ELLIPSE
  5
87
330
2
100
AcDbEntity
  8
NOTES
  6
DASHED
100
AcDbEllipse
 10
-4247.492821568335
 20
351.7320004525117
 30
-1948.234127276202
 11
0.0000000000003611
 21
180.6874045196678
 31
0.0000000000000251
210
0.0
220
-0.0000000000000001
230
0.9999999999999998
 40
0.4243084184771421
 41
6.115968117938594
 42
9.591995150010408
  0
LINE
  5
88
330
2
100
AcDbEntity
  8
NOTES
  6
DASHED
100
AcDbLine
 10
-4184.241062220035
 20
249.6242113573302
 30
-1948.234127276204
 11
-4234.732411530622
 21
173.5648685596957
 31
-1948.234127276203
  0
LINE
  5
89
330
2
100
AcDbEntity
  8
NOTES
  6
DASHED
100
AcDbLine
 10
-4191.673071870368
 20
366.7572318433963
 30
-1948.234127276205
 11
-4191.673071870368
 21
354.6221296592812
 31
-1948.234127276205
  0
LINE
  5
8A
330
2
100
AcDbEntity
  8
NOTES
  6
DASHED
100
AcDbLine
 10
-4184.467470388488
 20
369.381028317684
 30
-1948.234127276206
 11
-4184.467470388487
 21
354.9500980056332
 31
-1948.234127276208
  0
LINE
  5
8B
330
2
100
AcDbEntity
  8
NOTES
  6
DASHED
100
AcDbLine
 10
-4184.467470388487
 20
369.381028317683
 30
-1948.234127276204
 11
-4191.673071870368
 21
366.7572318433963
 31
-1948.234127276205
  0
LINE
  5
8C
330
2
100
AcDbEntity
  8
NOTES
  6
DASHED
100
AcDbLine
 10
-4191.673071870365
 20
334.0727569075361
 30
-1948.234127276206
 11
-4191.673071870367
 21
346.2078590916498
 31
-1948.234127276206
  0
LINE
  5
8D
330
2
100
AcDbEntity
  8
NOTES
  6
DASHED
100
AcDbLine
 10
-4184.467470388486
 20
331.4489604332493
 30
-1948.234127276207
 11
-4184.467470388486
 21
345.8798907453024
 31
-1948.23412727621
  0
LINE
  5
8E
330
2
100
AcDbEntity
  8
NOTES
  6
DASHED
100
AcDbLine
 10
-4184.467470388486
 20
331.4489604332502
 30
-1948.234127276206
 11
-4191.673071870365
 21
334.0727569075354
 31
-1948.234127276205
  0
LINE
  5
8F
330
2
100
AcDbEntity
  8
NOTES
  6
DASHED
100
AcDbLine
 10
-4195.603401174373
 20
350.4149943754671
 30
-1948.234127276206
 11
-4191.673071870365
 21
346.2078590916503
 31
-1948.234127276207
  0
LINE
  5
90
330
2
100
AcDbEntity
  8
NOTES
  6
DASHED
100
AcDbLine
 10
-4184.467470388486
 20
345.8798907453026
 30
-1948.234127276208
 11
-4188.397799692493
 21
350.4149943754673
 31
-1948.23412727621
  0
HATCH
  5
91
330
2
100
AcDbEntity
  8
NOTES
  6
DASHED
100
AcDbHatch
 10
0.0
 20
0.0
 30
-1948.234127276211
210
0.0000000000000002
220
0.0
230
1.0
  2
SOLID
 70
     1
 71
     0
 91
        1
 92
        7
 72
     0
 73
     1
 93
       10
 10
-4184.467470388485
 20
331.4489604332482
 10
-4184.467470388485
 20
345.8798907453008
 10
-4188.397799692491
 20
350.4149943754662
 10
-4184.467470388485
 20
354.950098005632
 10
-4184.467470388486
 20
369.3810283176819
 10
-4191.673071870365
 20
366.7572318433942
 10
-4191.673071870365
 20
354.6221296592791
 10
-4195.603401174372
 20
350.4149943754648
 10
-4191.673071870364
 20
346.2078590916496
 10
-4191.673071870364
 20
334.0727569075345
 97
        0
 75
     0
 76
     1
 47
0.3275274128572605
 98
        1
 10
-4187.087698893022
 20
338.5513327637334
  0
LINE
  5
92
330
2
100
AcDbEntity
  8
NOTES
  6
DASHED
100
AcDbLine
 10
-4195.603401174373
 20
350.4149943754664
 30
-1948.234127276206
 11
-4191.673071870367
 21
354.6221296592812
 31
-1948.234127276206
  0
LINE
  5
93
330
2
100
AcDbEntity
  8
NOTES
  6
DASHED
100
AcDbLine
 10
-4184.467470388486
 20
354.9500980056329
 30
-1948.234127276207
 11
-4188.397799692494
 21
350.4149943754673
 31
-1948.234127276208
  0
LINE
  5
94
330
2
100
AcDbEntity
  8
NOTES
  6
DASHED
100
AcDbLine
 10
-4234.732411530624
 20
529.8991323453285
 30
-1948.234127276201
 11
-4184.241062220055
 21
453.8397895477646
 31
-1948.234127276202
  0
LINE
  5
95
330
2
100
AcDbEntity
  8
NOTES
  6
DASHED
100
AcDbLine
 10
-4183.526532544873
 20
429.9553111455834
 30
-1948.234127276205
 11
-4165.375780874592
 21
429.9553111455829
 31
-1948.234127276205
  0
ELLIPSE
  5
96
330
2
100
AcDbEntity
  8
NOTES
  6
DASHED
100
AcDbEllipse
 10
-3899.333000408715
 20
574.2904710213356
 30
-1948.234127276204
 11
0.0000000000000466
 21
22.08401610795941
 31
-0.0000000000000025
210
0.0000000000000001
220
0.0000000000000001
230
0.9999999999999998
 40
0.424308418477142
 41
0.0
 42
6.283185307179586
  0
LINE
  5
97
330
2
100
AcDbEntity
  8
NOTES
  6
DASHED
100
AcDbLine
 10
-3821.928192318656
 20
897.8813027793366
 30
-1948.234127276204
 11
-3872.419541629242
 21
821.821959981702
 31
-1948.234127276203
  0
ELLIPSE
  5
98
330
2
100
AcDbEntity
  8
NOTES
  6
DASHED
100
AcDbEllipse
 10
-3859.65913159153
 20
999.9890918745178
 30
-1948.234127276201
 11
0.0000000000003611
 21
180.6874045196678
 31
0.00000000000001
210
0.0000000000000004
220
-0.0000000000000001
230
0.9999999999999998
 40
0.4243084184771421
 41
0.1672171892410344
 42
2.9743754643488
  0
ELLIPSE
  5
99
330
2
100
AcDbEntity
  8
NOTES
  6
DASHED
100
AcDbEllipse
 10
-3885.179951666955
 20
999.9890918745181
 30
-1948.234127276201
 11
0.0000000000003611
 21
180.6874045196678
 31
0.0000000000000251
210
0.0
220
-0.0000000000000001
230
0.9999999999999998
 40
0.4243084184771421
 41
6.115968117938594
 42
9.591995150010408
  0
ELLIPSE
  5
9A
330
2
100
AcDbEntity
  8
NOTES
  6
DASHED
100
AcDbEllipse
 10
-3839.762242072378
 20
999.9890918745178
 30
-1948.234127276202
 11
0.0000000000002268
 21
110.4200805397971
 31
-0.0000000000000061
210
0.0000000000000003
220
0.0000000000000001
230
1.0
 40
0.4243084184771421
 41
0.0
 42
6.283185307179586
  0
HATCH
  5
9B
330
2
100
AcDbEntity
  8
NOTES
  6
DASHED
100
AcDbHatch
 10
0.0
 20
0.0
 30
-1948.234127276211
210
0.0000000000000002
220
0.0
230
1.0
  2
SOLID
 70
     1
 71
     0
 91
        1
 92
        7
 72
     0
 73
     1
 93
       10
 10
-3822.154600487105
 20
979.7060518552548
 10
-3822.154600487105
 20
994.1369821673074
 10
-3826.084929791112
 20
998.6720857974729
 10
-3822.154600487106
 20
1003.207189427638
 10
-3822.154600487107
 20
1017.638119739688
 10
-3829.360201968986
 20
1015.0143232654
 10
-3829.360201968986
 20
1002.879221081285
 10
-3833.290531272992
 20
998.6720857974709
 10
-3829.360201968984
 20
994.4649505136563
 10
-3829.360201968984
 20
982.3298483295406
 97
        0
 75
     0
 76
     1
 47
0.3275274128572605
 98
        1
 10
-3824.774828991643
 20
986.8084241857401
  0
LINE
  5
9C
330
2
100
AcDbEntity
  8
NOTES
  6
DASHED
100
AcDbLine
 10
-3822.154600487106
 20
979.7060518552557
 30
-1948.234127276207
 11
-3822.154600487107
 21
994.1369821673088
 31
-1948.23412727621
  0
LINE
  5
9D
330
2
100
AcDbEntity
  8
NOTES
  6
DASHED
100
AcDbLine
 10
-3822.15460048711
 20
1017.63811973969
 30
-1948.234127276206
 11
-3822.154600487108
 21
1003.207189427639
 31
-1948.234127276208
  0
LINE
  5
9E
330
2
100
AcDbEntity
  8
NOTES
  6
DASHED
100
AcDbLine
 10
-3822.154600487107
 20
994.1369821673088
 30
-1948.234127276208
 11
-3826.084929791114
 21
998.6720857974738
 31
-1948.23412727621
  0
LINE
  5
9F
330
2
100
AcDbEntity
  8
NOTES
  6
DASHED
100
AcDbLine
 10
-3822.154600487108
 20
1003.207189427639
 30
-1948.234127276207
 11
-3826.084929791114
 21
998.6720857974738
 31
-1948.234127276208
  0
LINE
  5
A0
330
2
100
AcDbEntity
  8
NOTES
  6
DASHED
100
AcDbLine
 10
-3822.154600487107
 20
979.7060518552562
 30
-1948.234127276206
 11
-3829.360201968986
 21
982.329848329542
 31
-1948.234127276205
  0
LINE
  5
A1
330
2
100
AcDbEntity
  8
NOTES
  6
DASHED
100
AcDbLine
 10
-3829.360201968988
 20
982.3298483295426
 30
-1948.234127276206
 11
-3829.360201968987
 21
994.4649505136563
 31
-1948.234127276206
  0
LINE
  5
A2
330
2
100
AcDbEntity
  8
NOTES
  6
DASHED
100
AcDbLine
 10
-3833.290531272994
 20
998.6720857974733
 30
-1948.234127276205
 11
-3829.360201968986
 21
994.4649505136567
 31
-1948.234127276207
  0
LINE
  5
A3
330
2
100
AcDbEntity
  8
NOTES
  6
DASHED
100
AcDbLine
 10
-3833.290531272995
 20
998.6720857974724
 30
-1948.234127276205
 11
-3829.360201968987
 21
1002.879221081287
 31
-1948.234127276206
  0
LINE
  5
A4
330
2
100
AcDbEntity
  8
NOTES
  6
DASHED
100
AcDbLine
 10
-3829.360201968988
 20
1015.014323265402
 30
-1948.234127276205
 11
-3829.360201968988
 21
1002.879221081287
 31
-1948.234127276206
  0
LINE
  5
A5
330
2
100
AcDbEntity
  8
NOTES
  6
DASHED
100
AcDbLine
 10
-3822.154600487108
 20
1017.638119739689
 30
-1948.234127276204
 11
-3829.360201968988
 21
1015.014323265402
 31
-1948.234127276205
  0
ELLIPSE
  5
A6
330
2
100
AcDbEntity
  8
NOTES
  6
DASHED
100
AcDbEllipse
 10
-3831.240136492999
 20
999.9890918745187
 30
-1948.234127276204
 11
0.0000000000001134
 21
55.21004026989856
 31
-0.0000000000000031
210
0.0000000000000001
220
0.0000000000000001
230
1.0
 40
0.4243084184771421
 41
0.0
 42
6.283185307179586
  0
LINE
  5
A7
330
2
100
AcDbEntity
  8
NOTES
  6
DASHED
100
AcDbLine
 10
-3872.419541629245
 20
1178.156223767335
 30
-1948.234127276201
 11
-3821.928192318676
 21
1102.096880969771
 31
-1948.234127276202
  0
LINE
  5
A8
330
2
100
AcDbEntity
  8
NOTES
  6
DASHED
100
AcDbLine
 10
-4527.688650775966
 20
823.5076688957787
 30
-1948.234127276204
 11
-4183.526532544874
 21
925.3983202523972
 31
-1948.234127276203
  0
LINE
  5
A9
330
2
100
AcDbEntity
  8
NOTES
  6
DASHED
100
AcDbLine
 10
-4545.839402446248
 20
823.5076688957796
 30
-1948.234127276205
 11
-4183.526532544874
 21
930.7719270857219
 31
-1948.234127276205
  0
LINE
  5
AA
330
2
100
AcDbEntity
  8
NOTES
  6
DASHED
100
AcDbLine
 10
-4449.941105902779
 20
700.0799367150084
 30
-1948.234127276203
 11
-4183.526532544873
 21
776.4730863242889
 31
-1948.234127276203
  0
MTEXT
  5
AB
330
2
100
AcDbEntity
  8
NOTES
  6
DASHED
100
AcDbMText
 10
-4393.36048065721
 20
703.8414774645971
 30
-1948.234127276203
 40
44.38007146772679
 41
412.4788999999999
 71
     1
 72
     5
  1
MIRAG
 11
0.9612616959383188
 21
0.2756373558169991
 31
0.0000000000000001
 73
     1
 44
1.0
  0
ARC
  5
AC
330
2
100
AcDbEntity
  8
NOTES
  6
DASHED
100
AcDbCircle
 10
-4249.336692309152
 20
807.606513256127
 30
-1948.234127276208
 40
758.4773725051974
100
AcDbArc
 50
179.0679850371571
 51
246.9883471598435
  0
ARC
  5
AD
330
2
100
AcDbEntity
  8
NOTES
  6
DASHED
100
AcDbCircle
 10
-4249.336692309145
 20
807.6065132561266
 30
-1948.234127276205
 40
687.5476407914852
100
AcDbArc
 50
178.9718253932382
 51
244.4532896519521
  0
MTEXT
  5
AE
330
2
100
AcDbEntity
  8
NOTES
  6
DASHED
100
AcDbMText
 10
-4473.758911170444
 20
459.4848484911513
 30
-1948.234127276202
 40
30.0
 41
412.4788999999999
 71
     1
 72
     5
  1
OPEN
 11
0.9612616959383188
 21
0.2756373558169991
 31
0.0000000000000001
 73
     1
 44
1.0
  0
LINE
  5
AF
330
2
100
AcDbEntity
  8
NOTES
  6
DASHED
100
AcDbLine
 10
-4545.839402446254
 20
823.5076688957787
 30
-1948.234127276206
 11
-4527.688650775972
 21
823.5076688957773
 31
-1948.234127276204
  0
MTEXT
  5
B0
330
2
100
AcDbEntity
  8
NOTES
  6
DASHED
100
AcDbMText
 10
-4111.446041269064
 20
1107.741939913157
 30
-1948.234127276202
 40
30.0
 41
412.4788999999999
 71
     1
 72
     5
  1
OPEN
 11
0.9612616959383188
 21
0.2756373558169991
 31
0.0000000000000001
 73
     1
 44
1.0
  0
ELLIPSE
  5
B1
330
2
100
AcDbEntity
  8
NOTES
  6
DASHED
100
AcDbEllipse
 10
-4261.645870310093
 20
844.1160813762149
 30
-1948.234127276204
 11
0.0000000000000466
 21
22.08401610795941
 31
-0.0000000000000025
210
0.0000000000000001
220
0.0000000000000001
230
0.9999999999999998
 40
0.424308418477142
 41
0.0
 42
6.283185307179586
  0
ARC
  5
B2
330
2
100
AcDbEntity
  8
NOTES
  6
DASHED
100
AcDbCircle
 10
-4248.624550669428
 20
2258.926406755878
 30
-1948.234127276207
 40
391.1524762978951
100
AcDbArc
 50
108.9852157352842
 51
183.1764621060134
  0
LINE
  5
B3
330
2
100
AcDbEntity
  8
NOTES
  6
DASHED
100
AcDbLine
 10
-4165.375780874588
 20
1471.764760317785
 30
-1948.234127276204
 11
-3655.727844406655
 21
1622.648188384107
 31
-1948.234127276201
  0
LINE
  5
B4
330
2
100
AcDbEntity
  8
NOTES
  6
DASHED
100
AcDbLine
 10
-4183.52653254487
 20
1471.764760317786
 30
-1948.234127276205
 11
-3673.878596076937
 21
1622.648188384108
 31
-1948.234127276202
  0
LINE
  5
B5
330
2
100
AcDbEntity
  8
NOTES
  6
DASHED
100
AcDbLine
 10
-4258.70811299817
 20
1944.68555866638
 30
-1948.234127276204
 11
-3530.639632329695
 21
2160.23331304684
 31
-1948.234127276201
  0
LINE
  5
B6
330
2
100
AcDbEntity
  8
NOTES
  6
DASHED
100
AcDbLine
 10
-4068.384289448885
 20
1281.225410973272
 30
-1948.234127276202
 11
-3735.7273609828
 21
1376.61325025162
 31
-1948.234127276202
  0
LINE
  5
B7
330
2
100
AcDbEntity
  8
NOTES
  6
DASHED
100
AcDbLine
 10
-4087.628236001401
 20
1348.337028137014
 30
-1948.234127276203
 11
-3754.971307535313
 21
1443.724867415362
 31
-1948.234127276202
  0
MTEXT
  5
B8
330
2
100
AcDbEntity
  8
NOTES
  6
DASHED
100
AcDbMText
 10
-4031.047610755831
 20
1352.098568886603
 30
-1948.234127276203
 40
44.38007146772679
 41
412.4788999999999
 71
     1
 72
     5
  1
MIRAGE
 11
0.9612616959383188
 21
0.275637355816999
 31
0.0000000000000001
 73
     1
 44
1.0
  0
ARC
  5
B9
330
2
100
AcDbEntity
  8
NOTES
  6
DASHED
100
AcDbCircle
 10
-4226.349389536561
 20
2264.307827130988
 30
-1948.234127276205
 40
344.1033852905229
100
AcDbArc
 50
115.7559955201365
 51
186.1206846758791
  0
LINE
  5
BA
330
2
100
AcDbEntity
  8
NOTES
  6
DASHED
100
AcDbLine
 10
-4936.773632588869
 20
2053.684104030057
 30
-1948.234127276209
 11
-4936.773632588867
 21
1658.887244360121
 31
-1948.234127276208
  0
ELLIPSE
  5
BB
330
2
100
AcDbEntity
  8
NOTES
  6
DASHED
100
AcDbEllipse
 10
-3899.333000408714
 20
1492.373172798221
 30
-1948.234127276203
 11
0.0000000000000466
 21
22.08401610795941
 31
-0.0000000000000025
210
0.0000000000000001
220
0.0000000000000001
230
0.9999999999999998
 40
0.424308418477142
 41
0.0
 42
6.283185307179586
  0
LINE
  5
BC
330
2
100
AcDbEntity
  8
NOTES
  6
DASHED
100
AcDbLine
 10
-4183.526532544875
 20
1471.764760317785
 30
-1948.234127276205
 11
-4165.375780874593
 21
1471.764760317783
 31
-1948.234127276204
  0
LINE
  5
BD
330
2
100
AcDbEntity
  8
NOTES
  6
DASHED
100
AcDbLine
 10
-4568.491219101501
 20
2227.618479489506
 30
-1948.234127276207
 11
-4568.491219101504
 21
1435.885625287525
 31
-1948.234127276207
  0
LINE
  5
BE
330
2
100
AcDbEntity
  8
NOTES
  6
DASHED
100
AcDbLine
 10
-4639.176065063341
 20
2237.252128945468
 30
-1948.234127276211
 11
-4639.176065063344
 21
1435.885625287526
 31
-1948.23412727621
  0
LINE
  5
BF
330
2
100
AcDbEntity
  8
NOTES
  6
DASHED
100
AcDbLine
 10
-4375.87590442177
 20
1944.685558666384
 30
-1948.234127276205
 11
-4258.708112998176
 21
1944.68555866638
 31
-1948.234127276205
  0
ELLIPSE
  5
C0
330
2
100
AcDbEntity
  8
NOTES
  6
DASHED
100
AcDbEllipse
 10
-3074.266583723081
 20
2826.155489402735
 30
-1948.234127276209
 11
0.0000000000015959
 21
229.999999999999
 31
-0.0000000000000128
210
0.0
220
0.0000000000000001
230
0.9999999999999998
 40
0.424308418477149
 41
2.066612434059793
 42
7.302024184025441
  0
ELLIPSE
  5
C1
330
2
100
AcDbEntity
  8
NOTES
  6
DASHED
100
AcDbEllipse
 10
-3080.419545556473
 20
2823.34016886989
 30
-1948.23412727621
 11
0.0000000000006757
 21
193.1999999999998
 31
0.0
210
0.0000000000000001
220
0.0
230
1.0
 40
0.4243084184771448
 41
2.15531324743015
 42
7.161038638354953
  0
ELLIPSE
  5
C2
330
2
100
AcDbEntity
  8
NOTES
  6
DASHED
100
AcDbEllipse
 10
-3074.266583723078
 20
2826.155489402731
 30
-1948.234127276208
 11
-0.0000000000004979
 21
-229.9999999999993
 31
-0.0000000000000128
210
-0.0000000000000002
220
-0.0000000000000001
230
1.0
 40
0.4243084184771421
 41
5.208205087649573
 42
10.44361683761522
  0
ELLIPSE
  5
C3
330
2
100
AcDbEntity
  8
NOTES
  6
DASHED
100
AcDbEllipse
 10
-3080.419545556471
 20
2823.340168869886
 30
-1948.234127276208
 11
-0.0000000000004397
 21
-193.1999999999993
 31
-0.0000000000000483
210
-0.0000000000000004
220
-0.0000000000000002
230
1.0
 40
0.4243084184771423
 41
5.296905901019925
 42
10.30263129194378
  0
ARC
  5
C4
330
2
100
AcDbEntity
  8
NOTES
  6
DASHED
100
AcDbCircle
 10
-2505.647144775227
 20
3375.846892543515
 30
-1948.234127276229
 40
495.3064831633459
100
AcDbArc
 50
222.4577693671839
 51
256.2136072513967
  0
ELLIPSE
  5
C5
330
2
100
AcDbEntity
  8
NOTES
  6
DASHED
100
AcDbEllipse
 10
-2905.360187632057
 20
2826.155489402724
 30
-1948.23412727621
 11
-0.0000000000004979
 21
-229.9999999999992
 31
-0.0000000000000383
210
-0.0000000000000004
220
-0.0000000000000002
230
0.9999999999999998
 40
0.4243084184771421
 41
0.0
 42
3.141592653589793
  0
ELLIPSE
  5
C6
330
2
100
AcDbEntity
  8
NOTES
  6
DASHED
100
AcDbEllipse
 10
-3039.49174036893
 20
2826.155489402728
 30
-1948.234127276208
 11
-0.0000000000004979
 21
-229.9999999999992
 31
-0.0000000000000383
210
-0.0000000000000002
220
-0.0000000000000002
230
0.9999999999999998
 40
0.4243084184771421
 41
0.0
 42
3.141592653589793
  0
LINE
  5
C7
330
2
100
AcDbEntity
  8
NOTES
  6
DASHED
100
AcDbLine
 10
-3673.878596076939
 20
1622.648188384109
 30
-1948.234127276203
 11
-3655.727844406655
 21
1622.648188384109
 31
-1948.234127276203
  0
LINE
  5
C8
330
2
100
AcDbEntity
  8
NOTES
  6
DASHED
100
AcDbLine
 10
-2905.360187632057
 20
2596.155489402723
 30
-1948.234127276221
 11
-3039.491740368914
 21
2596.155489402728
 31
-1948.234127276215
  0
LINE
  5
C9
330
2
100
AcDbEntity
  8
NOTES
  6
DASHED
100
AcDbLine
 10
-3074.266583723081
 20
2596.155489402731
 30
-1948.234127276211
 11
-3039.491740368912
 21
2596.155489402729
 31
-1948.234127276213
  0
ELLIPSE
  5
CA
330
2
100
AcDbEntity
  8
NOTES
  6
DASHED
100
AcDbEllipse
 10
-2612.908281599846
 20
2826.155489402726
 30
-1948.234127276211
 11
0.0
 21
-78.89979041430897
 31
0.0
210
0.0
220
0.0
230
1.0
 40
0.4060000000000036
 41
5.795781831318058
 42
9.912181436631019
  0
ELLIPSE
  5
CB
330
2
100
AcDbEntity
  8
NOTES
  6
DASHED
100
AcDbEllipse
 10
-2629.414485552027
 20
2826.155489402722
 30
-1948.234127276219
 11
0.0000000000085996
 21
-70.09766087481553
 31
-0.0000000000000058
210
-0.0000000000000001
220
-0.0000000000000001
230
1.0
 40
0.4052050267394353
 41
0.0
 42
3.141592653589793
  0
ARC
  5
CC
330
2
100
AcDbEntity
  8
NOTES
  6
DASHED
100
AcDbCircle
 10
-2505.647144775235
 20
2276.464086261933
 30
-1948.234127276226
 40
495.3064831633459
100
AcDbArc
 50
103.7863927486033
 51
137.542230632816
  0
LINE
  5
CD
330
2
100
AcDbEntity
  8
NOTES
  6
DASHED
100
AcDbLine
 10
-2612.908281599846
 20
2747.255698988414
 30
-1948.234127276213
 11
-2528.285571974546
 21
2747.255698988411
 31
-1948.234127276214
  0
LINE
  5
CE
330
2
100
AcDbEntity
  8
NOTES
  6
DASHED
100
AcDbLine
 10
-3530.639632329686
 20
3648.53252614999
 30
-1948.234127276203
 11
-3530.639632329696
 21
2160.233313046841
 31
-1948.234127276203
  0
LINE
  5
CF
330
2
100
AcDbEntity
  8
NOTES
  6
DASHED
100
AcDbLine
 10
-3695.697688250963
 20
2872.567353757952
 30
-1948.234127276218
 11
-3714.585986266264
 21
2912.028160407942
 31
-1948.234127276217
  0
LINE
  5
D0
330
2
100
AcDbEntity
  8
NOTES
  6
DASHED
100
AcDbLine
 10
-3728.497467260815
 20
2834.813946438826
 30
-1948.234127276214
 11
-3733.415441209841
 21
2845.088414734219
 31
-1948.234127276213
  0
LINE
  5
D1
330
2
100
AcDbEntity
  8
NOTES
  6
DASHED
100
AcDbLine
 10
-3754.599643959466
 20
2780.282143360807
 30
-1948.234127276214
 11
-3759.51761790849
 21
2790.556611656199
 31
-1948.234127276211
  0
LINE
  5
D2
330
2
100
AcDbEntity
  8
NOTES
  6
DASHED
100
AcDbLine
 10
-3691.319910285778
 20
2881.713262494722
 30
-1948.234127276217
 11
-3710.208208301079
 21
2921.174069144711
 31
-1948.234127276217
  0
ELLIPSE
  5
D3
330
2
100
AcDbEntity
  8
NOTES
  6
DASHED
100
AcDbEllipse
 10
-3736.92858198757
 20
2851.357565094125
 30
-1948.234127276208
 11
-0.0000000000008676
 21
229.850552931944
 31
-0.0000000000000064
210
0.0000000000000002
220
0.0
230
0.9999999999999998
 40
0.3584335757731598
 41
4.915573686682588
 42
7.650796927676479
  0
ELLIPSE
  5
D4
330
2
100
AcDbEntity
  8
NOTES
  6
DASHED
100
AcDbEllipse
 10
-3736.92858198757
 20
2851.357565094125
 30
-1948.234127276208
 11
-0.0000000000008676
 21
229.850552931944
 31
-0.0000000000000064
210
0.0000000000000002
220
0.0
230
0.9999999999999998
 40
0.3584335757731598
 41
1.773981033092972
 42
4.509204274086655
  0
LINE
  5
D5
330
2
100
AcDbEntity
  8
NOTES
  6
DASHED
100
AcDbLine
 10
-3833.965485352707
 20
2567.716428826158
 30
-1948.234127276203
 11
-4000.193841010641
 21
2567.716428826158
 31
-1948.234127276204
  0
ELLIPSE
  5
D6
330
2
100
AcDbEntity
  8
NOTES
  6
DASHED
100
AcDbEllipse
 10
-3833.96548535271
 20
2851.357565094133
 30
-1948.234127276202
 11
-0.0000000000004094
 21
283.6411362679745
 31
0.0000000000000394
210
0.0
220
-0.0000000000000001
230
1.0
 40
0.4081632507187356
 41
6.152574347378781
 42
9.555388920568955
  0
ELLIPSE
  5
D7
330
2
100
AcDbEntity
  8
NOTES
  6
DASHED
100
AcDbEllipse
 10
-3724.308749732502
 20
2670.360349498662
 30
-1948.234127276212
 11
-0.0000000000004518
 21
27.49582288233205
 31
-0.0000000000000031
210
0.0000000000000002
220
0.0000000000000001
230
0.9999999999999998
 40
0.4402223870946996
 41
0.0
 42
6.283185307179586
  0
ARC
  5
D8
330
2
100
AcDbEntity
  8
NOTES
  6
DASHED
100
AcDbCircle
 10
-3854.055787192117
 20
2741.364034985014
 30
-1948.234127276208
 40
174.805924821512
100
AcDbArc
 50
276.5995403572796
 51
317.9221342441908
  0
LINE
  5
D9
330
2
100
AcDbEntity
  8
NOTES
  6
DASHED
100
AcDbLine
 10
-3728.497467260814
 20
2834.813946438828
 30
-1948.234127276211
 11
-3754.599643959464
 21
2780.282143360807
 31
-1948.234127276211
  0
LINE
  5
DA
330
2
100
AcDbEntity
  8
NOTES
  6
DASHED
100
AcDbLine
 10
-3692.458806529366
 20
2828.187461102297
 30
-1948.234127276221
 11
-3697.376780478391
 21
2838.461929397688
 31
-1948.234127276221
  0
LINE
  5
DB
330
2
100
AcDbEntity
  8
NOTES
  6
DASHED
100
AcDbLine
 10
-3697.376780478389
 20
2838.461929397688
 30
-1948.23412727622
 11
-3723.478957177039
 21
2783.930126319668
 31
-1948.234127276217
  0
LINE
  5
DC
330
2
100
AcDbEntity
  8
NOTES
  6
DASHED
100
AcDbLine
 10
-3718.560983228017
 20
2773.655658024276
 30
-1948.234127276222
 11
-3723.478957177039
 21
2783.930126319667
 31
-1948.234127276221
  0
LINE
  5
DD
330
2
100
AcDbEntity
  8
NOTES
  6
DASHED
100
AcDbLine
 10
-3692.458806529364
 20
2828.187461102298
 30
-1948.234127276219
 11
-3718.560983228014
 21
2773.655658024277
 31
-1948.234127276219
  0
LINE
  5
DE
330
2
100
AcDbEntity
  8
NOTES
  6
DASHED
100
AcDbLine
 10
-3691.319910285778
 20
2881.713262494723
 30
-1948.234127276214
 11
-3695.697688250965
 21
2872.567353757952
 31
-1948.234127276216
  0
ELLIPSE
  5
DF
330
2
100
AcDbEntity
  8
NOTES
  6
DASHED
100
AcDbEllipse
 10
-3656.237199810645
 20
2851.35756509411
 30
-1948.23412727621
 11
0.0000000000010788
 21
46.38143785867624
 31
-0.0000000000000154
210
-0.0000000000000001
220
-0.0000000000000003
230
-1.0
 40
0.3880862869074007
 41
3.141592653589793
 42
6.283185307179586
  0
ELLIPSE
  5
E0
330
2
100
AcDbEntity
  8
NOTES
  6
DASHED
100
AcDbEllipse
 10
-3724.308749732502
 20
3032.147495957232
 30
-1948.234127276213
 11
-0.0000000000004518
 21
27.49582288233205
 31
0.0000000000000046
210
0.0000000000000001
220
-0.0000000000000002
230
1.0
 40
0.4402223870946996
 41
0.0
 42
6.283185307179586
  0
ELLIPSE
  5
E1
330
2
100
AcDbEntity
  8
NOTES
  6
DASHED
100
AcDbEllipse
 10
-4000.193841010642
 20
2851.357565094131
 30
-1948.234127276203
 11
-0.0000000000004094
 21
283.6411362679745
 31
0.0000000000000394
210
0.0
220
-0.0000000000000001
230
1.0
 40
0.4081632507187356
 41
0.0
 42
3.141592653589793
  0
LINE
  5
E2
330
2
100
AcDbEntity
  8
NOTES
  6
DASHED
100
AcDbLine
 10
-3733.41544120984
 20
2845.088414734219
 30
-1948.234127276211
 11
-3759.517617908489
 21
2790.556611656198
 31
-1948.23412727621
  0
LINE
  5
E3
330
2
100
AcDbEntity
  8
NOTES
  6
DASHED
100
AcDbLine
 10
-3817.61996416449
 20
2804.976127235436
 30
-1948.23412727621
 11
-3931.737373569399
 21
2804.976127235434
 31
-1948.234127276211
  0
LINE
  5
E4
330
2
100
AcDbEntity
  8
NOTES
  6
DASHED
100
AcDbLine
 10
-3817.619964164492
 20
2897.739002952787
 30
-1948.234127276208
 11
-3931.737373569401
 21
2897.739002952786
 31
-1948.234127276211
  0
ELLIPSE
  5
E5
330
2
100
AcDbEntity
  8
NOTES
  6
DASHED
100
AcDbEllipse
 10
-3931.737373569401
 20
2851.357565094131
 30
-1948.234127276179
 11
-0.0000000000013543
 21
46.38143785867622
 31
-0.0000000000000013
210
0.0000000000000002
220
0.0
230
1.0
 40
0.3880862869074007
 41
0.0
 42
6.283185307179586
  0
ELLIPSE
  5
E6
330
2
100
AcDbEntity
  8
NOTES
  6
DASHED
100
AcDbEllipse
 10
-3817.619964164492
 20
2851.357565094111
 30
-1948.234127276208
 11
-0.0000000000013543
 21
46.38143785867622
 31
-0.0000000000000013
210
0.0000000000000002
220
0.0
230
1.0
 40
0.3880862869074007
 41
3.141592653589793
 42
6.283185307179586
  0
LINE
  5
E7
330
2
100
AcDbEntity
  8
NOTES
  6
DASHED
100
AcDbLine
 10
-3734.397279016161
 20
2916.514680073199
 30
-1948.234127276214
 11
-3760.499455714811
 21
2861.982876995177
 31
-1948.234127276213
  0
LINE
  5
E8
330
2
100
AcDbEntity
  8
NOTES
  6
DASHED
100
AcDbLine
 10
-3739.315252965186
 20
2926.78914836859
 30
-1948.234127276214
 11
-3765.417429663836
 21
2872.25734529057
 31
-1948.234127276213
  0
LINE
  5
E9
330
2
100
AcDbEntity
  8
NOTES
  6
DASHED
100
AcDbLine
 10
-3760.499455714813
 20
2861.982876995177
 30
-1948.234127276218
 11
-3765.417429663837
 21
2872.257345290569
 31
-1948.234127276215
  0
LINE
  5
EA
330
2
100
AcDbEntity
  8
NOTES
  6
DASHED
100
AcDbLine
 10
-3734.397279016162
 20
2916.514680073197
 30
-1948.234127276218
 11
-3739.315252965187
 21
2926.78914836859
 31
-1948.234127276216
  0
LINE
  5
EB
330
2
100
AcDbEntity
  8
NOTES
  6
DASHED
100
AcDbLine
 10
-3710.20820830108
 20
2921.174069144712
 30
-1948.234127276215
 11
-3714.585986266265
 21
2912.028160407944
 31
-1948.234127276216
  0
LINE
  5
EC
330
2
100
AcDbEntity
  8
NOTES
  6
DASHED
100
AcDbLine
 10
-3833.965485352709
 20
3134.998701362107
 30
-1948.234127276203
 11
-4000.193841010641
 21
3134.998701362107
 31
-1948.234127276206
  0
ARC
  5
ED
330
2
100
AcDbEntity
  8
NOTES
  6
DASHED
100
AcDbCircle
 10
-3854.055787192118
 20
2961.351095203238
 30
-1948.234127276207
 40
174.805924821512
100
AcDbArc
 50
42.07786575580916
 51
83.40045964272034
  0
LINE
  5
EE
330
2
100
AcDbEntity
  8
NOTES
  6
DASHED
100
AcDbLine
 10
-3190.391377424439
 20
2878.164944888698
 30
-1948.234127276209
 11
-3027.052381409036
 21
2878.164944888703
 31
-1948.234127276212
  0
LINE
  5
EF
330
2
100
AcDbEntity
  8
NOTES
  6
DASHED
100
AcDbLine
 10
-3186.018443350285
 20
2887.30073392875
 30
-1948.234127276206
 11
-3022.679447334885
 21
2887.300733928754
 31
-1948.234127276208
  0
LINE
  5
F0
330
2
100
AcDbEntity
  8
NOTES
  6
DASHED
100
AcDbLine
 10
-3204.885841982819
 20
2926.717878280427
 30
-1948.234127276207
 11
-3041.546845967417
 21
2926.717878280432
 31
-1948.23412727621
  0
LINE
  5
F1
330
2
100
AcDbEntity
  8
NOTES
  6
DASHED
100
AcDbLine
 10
-3206.976526185147
 20
2758.864713751265
 30
-1948.234127276205
 11
-3202.063993839164
 21
2748.601613872734
 31
-1948.234127276207
  0
LINE
  5
F2
330
2
100
AcDbEntity
  8
NOTES
  6
DASHED
100
AcDbLine
 10
-3012.651702466429
 20
2803.073079008996
 30
-1948.234127276208
 11
-3038.724997823759
 21
2748.601613872736
 31
-1948.234127276208
  0
LINE
  5
F3
330
2
100
AcDbEntity
  8
NOTES
  6
DASHED
100
AcDbLine
 10
-3175.990698481836
 20
2803.073079008992
 30
-1948.234127276207
 11
-3202.063993839167
 21
2748.601613872732
 31
-1948.234127276207
  0
LINE
  5
F4
330
2
100
AcDbEntity
  8
NOTES
  6
DASHED
100
AcDbLine
 10
-3273.352627151167
 20
2781.467636790801
 30
-1948.234127276206
 11
-3299.425922508498
 21
2726.996171654541
 31
-1948.234127276206
  0
LINE
  5
F5
330
2
100
AcDbEntity
  8
NOTES
  6
DASHED
100
AcDbLine
 10
-3268.440094805189
 20
2771.204536912271
 30
-1948.234127276204
 11
-3294.513390162517
 21
2716.733071776011
 31
-1948.234127276205
  0
LINE
  5
F6
330
2
100
AcDbEntity
  8
NOTES
  6
DASHED
100
AcDbLine
 10
-3012.651702466436
 20
2803.073079008999
 30
-1948.23412727621
 11
-3038.724997823768
 21
2748.601613872739
 31
-1948.234127276209
  0
LINE
  5
F7
330
2
100
AcDbEntity
  8
NOTES
  6
DASHED
100
AcDbLine
 10
-3294.513390162517
 20
2716.733071776012
 30
-1948.234127276206
 11
-3131.174394147115
 21
2716.733071776016
 31
-1948.234127276208
  0
LINE
  5
F8
330
2
100
AcDbEntity
  8
NOTES
  6
DASHED
100
AcDbLine
 10
-3294.513390162519
 20
2716.73307177601
 30
-1948.23412727621
 11
-3299.425922508499
 21
2726.996171654541
 31
-1948.234127276204
  0
LINE
  5
F9
330
2
100
AcDbEntity
  8
NOTES
  6
DASHED
100
AcDbLine
 10
-3115.920207232611
 20
2748.601613872734
 30
-1948.234127276206
 11
-3131.174394147111
 21
2716.733071776015
 31
-1948.234127276207
  0
LINE
  5
FA
330
2
100
AcDbEntity
  8
NOTES
  6
DASHED
100
AcDbLine
 10
-3202.063993839162
 20
2748.601613872732
 30
-1948.234127276206
 11
-3038.72499782376
 21
2748.601613872735
 31
-1948.234127276208
  0
LINE
  5
FB
330
2
100
AcDbEntity
  8
NOTES
  6
DASHED
100
AcDbLine
 10
-3268.440094805187
 20
2771.20453691227
 30
-1948.234127276204
 11
-3203.403705077134
 21
2771.204536912274
 31
-1948.234127276207
  0
LINE
  5
FC
330
2
100
AcDbEntity
  8
NOTES
  6
DASHED
100
AcDbLine
 10
-3273.352627151168
 20
2781.467636790801
 30
-1948.234127276205
 11
-3198.491172731155
 21
2781.467636790803
 31
-1948.234127276208
  0
LINE
  5
FD
330
2
100
AcDbEntity
  8
NOTES
  6
DASHED
100
AcDbLine
 10
-3268.440094805189
 20
2771.204536912271
 30
-1948.234127276209
 11
-3273.352627151168
 21
2781.467636790799
 31
-1948.234127276206
  0
ELLIPSE
  5
FE
330
2
100
AcDbEntity
  8
NOTES
  6
DASHED
100
AcDbEllipse
 10
-3074.266583723081
 20
2826.155489402735
 30
-1948.234127276209
 11
0.0000000000015959
 21
229.999999999999
 31
-0.0000000000000128
210
0.0
220
0.0000000000000001
230
0.9999999999999998
 40
0.424308418477149
 41
1.342695381990433
 42
1.62656135742121
  0
ELLIPSE
  5
FF
330
2
100
AcDbEntity
  8
NOTES
  6
DASHED
100
AcDbEllipse
 10
-3080.419545556473
 20
2823.34016886989
 30
-1948.23412727621
 11
0.0000000000006757
 21
193.1999999999998
 31
0.0
210
0.0000000000000001
220
0.0
230
1.0
 40
0.4243084184771448
 41
1.283070648486452
 42
1.622599980344631
  0
LINE
  5
100
330
2
100
AcDbEntity
  8
NOTES
  6
DASHED
100
AcDbLine
 10
-3089.68233001253
 20
2936.49403965776
 30
-1948.234127276211
 11
-3094.361784519847
 21
2926.717878280432
 31
-1948.234127276211
  0
LINE
  5
101
330
2
100
AcDbEntity
  8
NOTES
  6
DASHED
100
AcDbLine
 10
-3089.682330012529
 20
2936.494039657759
 30
-1948.234127276211
 11
-3094.594862358508
 21
2946.75713953629
 31
-1948.234127276208
  0
LINE
  5
102
330
2
100
AcDbEntity
  8
NOTES
  6
DASHED
100
AcDbLine
 10
-3253.021326027929
 20
2936.494039657755
 30
-1948.234127276204
 11
-3089.682330012528
 21
2936.494039657761
 31
-1948.234127276208
  0
LINE
  5
103
330
2
100
AcDbEntity
  8
NOTES
  6
DASHED
100
AcDbLine
 10
-3257.933858373908
 20
2946.757139536286
 30
-1948.234127276205
 11
-3094.594862358507
 21
2946.757139536291
 31
-1948.234127276208
  0
LINE
  5
104
330
2
100
AcDbEntity
  8
NOTES
  6
DASHED
100
AcDbLine
 10
-3279.094621385259
 20
2882.022574521494
 30
-1948.234127276206
 11
-3188.544885567766
 21
2882.022574521498
 31
-1948.234127276208
  0
LINE
  5
105
330
2
100
AcDbEntity
  8
NOTES
  6
DASHED
100
AcDbLine
 10
-3012.651702466432
 20
2803.073079008996
 30
-1948.234127276211
 11
-3017.564234812412
 21
2813.336178887523
 31
-1948.234127276211
  0
LINE
  5
106
330
2
100
AcDbEntity
  8
NOTES
  6
DASHED
100
AcDbLine
 10
-3175.990698481834
 20
2803.073079008992
 30
-1948.234127276207
 11
-3012.651702466431
 21
2803.073079008996
 31
-1948.234127276208
  0
LINE
  5
107
330
2
100
AcDbEntity
  8
NOTES
  6
DASHED
100
AcDbLine
 10
-3180.903230827815
 20
2813.336178887521
 30
-1948.234127276207
 11
-3017.564234812413
 21
2813.336178887525
 31
-1948.234127276209
  0
LINE
  5
108
330
2
100
AcDbEntity
  8
NOTES
  6
DASHED
100
AcDbLine
 10
-3204.885841982818
 20
2926.717878280425
 30
-1948.234127276206
 11
-3209.258776056969
 21
2917.582089240375
 31
-1948.234127276207
  0
LINE
  5
109
330
2
100
AcDbEntity
  8
NOTES
  6
DASHED
100
AcDbLine
 10
-3253.02132602793
 20
2936.494039657755
 30
-1948.234127276208
 11
-3257.933858373909
 21
2946.757139536286
 31
-1948.234127276206
  0
LINE
  5
10A
330
2
100
AcDbEntity
  8
NOTES
  6
DASHED
100
AcDbLine
 10
-3279.094621385262
 20
2882.022574521494
 30
-1948.234127276209
 11
-3284.007153731241
 21
2892.285674400025
 31
-1948.234127276207
  0
LINE
  5
10B
330
2
100
AcDbEntity
  8
NOTES
  6
DASHED
100
AcDbLine
 10
-3186.018443350285
 20
2887.30073392875
 30
-1948.234127276206
 11
-3190.391377424439
 21
2878.164944888697
 31
-1948.234127276209
  0
LINE
  5
10C
330
2
100
AcDbEntity
  8
NOTES
  6
DASHED
100
AcDbLine
 10
-3190.391377424439
 20
2878.164944888698
 30
-1948.234127276209
 11
-3209.258776056969
 21
2917.582089240374
 31
-1948.234127276208
  0
LINE
  5
10D
330
2
100
AcDbEntity
  8
NOTES
  6
DASHED
100
AcDbLine
 10
-3253.021326027929
 20
2936.494039657755
 30
-1948.234127276204
 11
-3279.094621385259
 21
2882.022574521496
 31
-1948.234127276206
  0
LINE
  5
10E
330
2
100
AcDbEntity
  8
NOTES
  6
DASHED
100
AcDbLine
 10
-3257.933858373909
 20
2946.757139536286
 30
-1948.234127276206
 11
-3284.007153731239
 21
2892.285674400025
 31
-1948.234127276204
  0
LINE
  5
10F
330
2
100
AcDbEntity
  8
NOTES
  6
DASHED
100
AcDbLine
 10
-3186.018443350285
 20
2887.300733928746
 30
-1948.234127276208
 11
-3204.885841982817
 21
2926.717878280425
 31
-1948.234127276208
  0
LINE
  5
110
330
2
100
AcDbEntity
  8
NOTES
  6
DASHED
100
AcDbLine
 10
-3175.990698481837
 20
2803.073079008991
 30
-1948.23412727621
 11
-3180.903230827816
 21
2813.336178887519
 31
-1948.234127276208
  0
LINE
  5
111
330
2
100
AcDbEntity
  8
NOTES
  6
DASHED
100
AcDbLine
 10
-3180.903230827815
 20
2813.336178887519
 30
-1948.234127276207
 11
-3206.976526185146
 21
2758.864713751262
 31
-1948.234127276205
  0
LINE
  5
112
330
2
100
AcDbEntity
  8
NOTES
  6
DASHED
100
AcDbLine
 10
-3012.651702466437
 20
2803.073079008998
 30
-1948.234127276212
 11
-3017.564234812417
 21
2813.336178887527
 31
-1948.234127276211
  0
LINE
  5
113
330
2
100
AcDbEntity
  8
NOTES
  6
DASHED
100
AcDbLine
 10
-3022.679447334886
 20
2887.300733928756
 30
-1948.23412727621
 11
-3027.052381409037
 21
2878.164944888705
 31
-1948.234127276212
  0
LINE
  5
114
330
2
100
AcDbEntity
  8
NOTES
  6
DASHED
100
AcDbLine
 10
-3022.679447334886
 20
2887.300733928755
 30
-1948.234127276211
 11
-3041.546845967417
 21
2926.717878280432
 31
-1948.234127276211
  0
LINE
  5
115
330
2
100
AcDbEntity
  8
NOTES
  6
DASHED
100
AcDbLine
 10
-2905.360187632051
 20
3056.155489402719
 30
-1948.234127276223
 11
-3039.49174036893
 21
3056.155489402724
 31
-1948.23412727621
  0
LINE
  5
116
330
2
100
AcDbEntity
  8
NOTES
  6
DASHED
100
AcDbLine
 10
-3074.266583723079
 20
3056.15548940273
 30
-1948.234127276211
 11
-3039.491740369016
 21
3056.155489402729
 31
-1948.234127276212
  0
LINE
  5
117
330
2
100
AcDbEntity
  8
NOTES
  6
DASHED
100
AcDbLine
 10
-3647.807423753295
 20
3648.532526149987
 30
-1948.234127276203
 11
-3530.639632329694
 21
3648.532526149989
 31
-1948.234127276203
  0
MTEXT
  5
118
330
2
100
AcDbEntity
  8
NOTES
  6
DASHED
100
AcDbMText
 10
-1874.766970151301
 20
3648.487102211682
 30
-1948.234127276203
 40
100.0
 41
1342.886299999999
 71
     1
 72
     5
  1
4-PIN PLUG AND CABLE (SUPPLIED BY MIRAGE)
 73
     1
 44
1.0
  0
ARC
  5
119
330
2
100
AcDbEntity
  8
MOTOR
100
AcDbCircle
 10
-846.1022615663077
 20
6546.774626299932
 30
-1948.234127276224
 40
3896.568568632781
100
AcDbArc
 50
254.8169012326285
 51
281.0831876286437
  0
ARC
  5
11A
330
2
100
AcDbEntity
  8
MOTOR
100
AcDbCircle
 10
-846.1022615663077
 20
6546.774626299932
 30
-1948.234127276224
 40
3944.56856863278
100
AcDbArc
 50
254.8169012326285
 51
281.3702098209743
  0
ELLIPSE
  5
11B
330
2
100
AcDbEntity
  8
MOTOR
100
AcDbEllipse
 10
1099.450888578949
 20
1542.94673255223
 30
-2504.141597577253
 11
97.79259581435324
 21
56.46058151816909
 31
-79.84732012246645
210
0.7071067811865475
220
-0.4082482904638631
230
0.5773502691896259
 40
0.5058511230971141
 41
0.5984264654782466
 42
3.473492382772549
  0
ELLIPSE
  5
11C
330
2
100
AcDbEntity
  8
MOTOR
100
AcDbEllipse
 10
1189.530430775207
 20
1490.73561416053
 30
-2434.859565274502
 11
97.79259581435324
 21
56.46058151816909
 31
-79.84732012246645
210
0.7071067811865475
220
-0.4082482904638631
230
0.5773502691896259
 40
0.5058511230971141
 41
-0.1652986198176453
 42
4.211915690332867
  0
LINE
  5
11D
330
2
100
AcDbEntity
  8
MOTOR
100
AcDbLine
 10
1154.877108445593
 20
1382.276054385467
 30
-3329.565655174366
 11
1367.009142801558
 21
1259.801567246308
 31
-3156.360574417478
210
0.7071067811865476
220
-0.408248290463863
230
0.5773502691896258
  0
LINE
  5
11E
330
2
100
AcDbEntity
  8
MOTOR
100
AcDbLine
 10
1006.995319497398
 20
1470.955100424766
 30
-2428.266242106329
 11
1096.712776576109
 21
1419.156702429364
 31
-2355.012245152031
210
0.7071067811865476
220
-0.408248290463863
230
0.5773502691896258
  0
ARC
  5
11F
330
2
100
AcDbEntity
  8
MOTOR
100
AcDbCircle
 10
1893.509546047738
 20
-2470.403473697341
 30
-1388.243012395667
 40
21.88392070346137
210
0.7071067811865476
220
-0.408248290463863
230
0.5773502691896258
100
AcDbArc
 50
12.67413616530138
 51
161.0395677557729
  0
LINE
  5
120
330
2
100
AcDbEntity
  8
MOTOR
100
AcDbLine
 10
1208.595077224495
 20
1513.307452540414
 30
-2820.9841056732
 11
1221.488932966698
 21
1505.863181456761
 31
-2810.456316544716
210
0.7071067811865476
220
-0.408248290463863
230
0.5773502691896258
  0
CIRCLE
  5
121
330
2
100
AcDbEntity
  8
MOTOR
100
AcDbCircle
 10
1882.472438969355
 20
-2707.640953474808
 30
-1178.243012395667
 40
19.26443688496259
210
0.7071067811865476
220
-0.408248290463863
230
0.5773502691896258
  0
LINE
  5
122
330
2
100
AcDbEntity
  8
MOTOR
100
AcDbLine
 10
1180.249388019823
 20
1621.774655467637
 30
-2590.645527717585
 11
1273.254850742441
 21
1568.077926528628
 31
-2514.706885396966
210
0.7071067811865476
220
-0.408248290463863
230
0.5773502691896258
  0
ARC
  5
123
330
2
100
AcDbEntity
  8
MOTOR
100
AcDbCircle
 10
-846.1022615663065
 20
6546.774626299935
 30
-1948.23412727622
 40
3896.568568632781
100
AcDbArc
 50
282.2225532382462
 51
301.7866580029473
  0
LINE
  5
124
330
2
100
AcDbEntity
  8
NOTES
  6
DASHED
100
AcDbLine
 10
93.71981689216818
 20
2434.435756982427
 30
-1948.23412727622
 11
-248.2851542737898
 21
2951.550770046594
 31
-1948.234127276226
  0
LINE
  5
125
330
2
100
AcDbEntity
  8
NOTES
  6
DASHED
100
AcDbLine
 10
152.4872938568128
 20
2475.972087504947
 30
-1948.234127276217
 11
-189.5176773091466
 21
2993.087100569114
 31
-1948.234127276221
  0
LINE
  5
126
330
2
100
AcDbEntity
  8
NOTES
  6
DASHED
100
AcDbLine
 10
374.0282619424883
 20
2041.632985560272
 30
-1948.234127276223
 11
951.0585300279672
 21
2268.373821652457
 31
-1948.234127276226
  0
LINE
  5
127
330
2
100
AcDbEntity
  8
NOTES
  6
DASHED
100
AcDbLine
 10
402.4068181710585
 20
1975.500235364567
 30
-1948.234127276221
 11
979.4370862565406
 21
2202.241071456749
 31
-1948.234127276221
  0
ARC
  5
128
330
2
100
AcDbEntity
  8
MOTOR
100
AcDbCircle
 10
-846.1022615663065
 20
6546.774626299935
 30
-1948.23412727622
 40
3944.56856863278
100
AcDbArc
 50
282.4935329231406
 51
301.840114413733
  0
ARC
  5
129
330
2
100
AcDbEntity
  8
MOTOR
100
AcDbCircle
 10
-2148.410305099035
 20
-98.01163982057403
 30
-3235.831103177345
 40
141.7716980064369
210
-0.7071067811865476
220
-0.408248290463863
230
0.5773502691896258
100
AcDbArc
 50
270.0326303209526
 51
297.5953103634552
  0
ARC
  5
12A
330
2
100
AcDbEntity
  8
0
100
AcDbCircle
 10
-2148.410305099035
 20
-98.01163982057403
 30
-3235.831103177345
 40
180.0
210
-0.7071067811865476
220
-0.408248290463863
230
0.5773502691896258
100
AcDbArc
 50
269.9400776237395
 51
290.0470357304701
  0
ARC
  5
12B
330
2
100
AcDbEntity
  8
0
100
AcDbCircle
 10
-2148.410305099035
 20
-98.01163982057403
 30
-3235.831103177345
 40
180.0
210
-0.7071067811865476
220
-0.408248290463863
230
0.5773502691896258
100
AcDbArc
 50
308.8596211272812
 51
254.4883672492517
  0
ARC
  5
12C
330
2
100
AcDbEntity
  8
MOTOR
100
AcDbCircle
 10
-2148.410305099035
 20
-98.01163982057403
 30
-3235.831103177345
 40
141.7716980064369
210
-0.7071067811865476
220
-0.408248290463863
230
0.5773502691896258
100
AcDbArc
 50
328.1774069794292
 51
250.2621800193749
  0
ARC
  5
12D
330
2
100
AcDbEntity
  8
MOTOR
100
AcDbCircle
 10
-2594.146539913048
 20
-1090.521969477187
 30
-1948.234127276227
 40
3896.568568632781
100
AcDbArc
 50
79.42745008308733
 51
88.56672709123641
  0
ARC
  5
12E
330
2
100
AcDbEntity
  8
MOTOR
100
AcDbCircle
 10
-2581.575123692697
 20
-1044.197467383643
 30
-1948.234127276224
 40
3896.568568632781
100
AcDbArc
 50
79.42745008308733
 51
88.77021344861487
  0
ELLIPSE
  5
12F
330
2
100
AcDbEntity
  8
NOTES
  6
DASHED
100
AcDbEllipse
 10
-5776.910022163757
 20
2477.14846794968
 30
-1948.234127276202
 11
-721.494079111386
 21
0.0000000000052066
 31
-0.0000000000000401
210
-0.0000000000000001
220
-0.0000000000000001
230
1.0
 40
0.6346731920743052
 41
2.399632457969051
 42
3.155094918211679
  0
ELLIPSE
  5
130
330
2
100
AcDbEntity
  8
NOTES
  6
DASHED
100
AcDbEllipse
 10
-5765.291755550168
 20
2477.529943875773
 30
-1948.234127276203
 11
-668.0500732512832
 21
0.0000000000060447
 31
-0.0000000000000742
210
-0.0000000000000001
220
0.0
230
1.0
 40
0.634673192074302
 41
2.41850577571959
 42
3.155275362005011
  0
ELLIPSE
  5
131
330
2
100
AcDbEntity
  8
NOTES
  6
DASHED
100
AcDbEllipse
 10
-5776.910022163757
 20
2477.14846794968
 30
-1948.234127276202
 11
-721.4940791113859
 21
0.0000000000005207
 31
-0.0000000000001202
210
-0.0000000000000002
220
0.0
230
1.0
 40
0.6346731920743148
 41
1.570796326794896
 42
2.399632457969052
  0
ELLIPSE
  5
132
330
2
100
AcDbEntity
  8
NOTES
  6
DASHED
100
AcDbEllipse
 10
-5765.291755550168
 20
2477.529943875773
 30
-1948.234127276203
 11
-668.050073251283
 21
0.000000000000445
 31
-0.0000000000001483
210
-0.0000000000000002
220
-0.0000000000000001
230
1.0
 40
0.6346731920743149
 41
1.553404138947164
 42
2.418505775719592
  0
ARC
  5
133
330
2
100
AcDbEntity
  8
NOTES
  6
DASHED
100
AcDbCircle
 10
-5784.089969370149
 20
2574.462919564698
 30
-1948.234127276223
 40
495.3064831633459
100
AcDbArc
 50
222.4577693671839
 51
256.2136072513967
  0
LINE
  5
134
330
2
100
AcDbEntity
  8
NOTES
  6
DASHED
100
AcDbLine
 10
-5891.35110619477
 20
2103.671306838214
 30
-1948.234127276205
 11
-5806.72839656947
 21
2103.671306838214
 31
-1948.234127276205
  0
HATCH
  5
135
330
2
100
AcDbEntity
  8
NOTES
  6
DASHED
100
AcDbHatch
 10
0.0
 20
0.0
 30
-1948.23412727621
210
0.0
220
0.0
230
1.0
  2
ANSI31
 70
     0
 71
     0
 91
        1
 92
        5
 93
        4
 72
     3
 10
-5891.351106194774
 20
2024.771516423913
 11
0.0
 21
-78.89979041430912
 40
0.4060000000000038
 50
-180.0
 51
0.0000000000002066
 73
     0
 72
     1
 10
-5891.351106194782
 20
1945.8717260096
 11
-5806.72839656948
 21
1945.871726009598
 72
     3
 10
-5806.728396569473
 20
2024.77151642391
 11
0.0
 21
-78.89979041430912
 40
0.4060000000000038
 50
360.0
 51
540.0
 73
     1
 72
     1
 10
-5806.728396569473
 20
2103.671306838219
 11
-5891.351106194766
 21
2103.671306838217
 97
        0
 75
     0
 76
     1
 52
90.0
 41
142.0196227457577
 77
     0
 78
     1
 53
134.9999999999999
 43
-5878.901146790147
 44
6808.775577801886
 45
-12.55287978813508
 46
-12.55287978813507
 79
     0
 47
0.9089270235124311
 98
        1
 10
-5816.500181772511
 20
2061.266729529873
  0
ELLIPSE
  5
136
330
2
100
AcDbEntity
  8
NOTES
  6
DASHED
100
AcDbEllipse
 10
-5806.728396569468
 20
2024.771516423905
 30
-1948.234127276204
 11
0.0
 21
-78.89979041430897
 31
0.0
210
0.0
220
0.0
230
1.0
 40
0.4060000000000036
 41
6.283185307179586
 42
9.424777960769379
  0
LINE
  5
137
330
2
100
AcDbEntity
  8
NOTES
  6
DASHED
100
AcDbLine
 10
-5891.351106194768
 20
1945.871726009597
 30
-1948.234127276208
 11
-5806.72839656947
 21
1945.871726009595
 31
-1948.234127276208
  0
ELLIPSE
  5
138
330
2
100
AcDbEntity
  8
NOTES
  6
DASHED
100
AcDbEllipse
 10
-5907.85731014695
 20
2024.771516423906
 30
-1948.234127276212
 11
0.0000000000085957
 21
-70.09766087481553
 31
-0.0000000000000078
210
-0.0000000000000004
220
-0.0000000000000001
230
1.0
 40
0.4052050267394353
 41
0.0
 42
3.141592653589793
  0
ELLIPSE
  5
139
330
2
100
AcDbEntity
  8
NOTES
  6
DASHED
100
AcDbEllipse
 10
-5891.351106194768
 20
2024.771516423908
 30
-1948.234127276205
 11
0.0
 21
-78.89979041430897
 31
0.0
210
0.0
220
0.0
230
1.0
 40
0.4060000000000036
 41
5.795781831318058
 42
9.912181436631019
  0
LINE
  5
13A
330
2
100
AcDbEntity
  8
NOTES
  6
DASHED
100
AcDbLine
 10
-4375.875904421767
 20
3432.984771769523
 30
-1948.234127276205
 11
-4258.708112998177
 21
3432.984771769524
 31
-1948.234127276205
  0
MTEXT
  5
13B
330
2
100
AcDbEntity
  8
NOTES
  6
DASHED
100
AcDbMText
 10
-6864.737463057682
 20
4327.50550847547
 30
1948.234127276202
 40
100.0
 41
2046.66263041401
 71
     1
 72
     5
  1
4-PIN SOCKET BASE (SUPPLIED BY MIRAGE)\PSECURE WITHIN BULKHEAD (FIXINGS NOT SUPPLIED)
 73
     1
 44
1.0
  0
MTEXT
  5
13C
330
2
100
AcDbEntity
  8
NOTES
  6
DASHED
100
AcDbMText
 10
-6989.924894362047
 20
2994.807309127676
 30
1948.2341272762
 40
100.0
 41
2112.073130287928
 71
     1
 72
     5
  1
10AMP (240V) 3 PIN PLUG AND CABLE TO POWER SUPPLY\P(NOT SUPPLIED)
 73
     1
 44
1.0
  0
LEADER
  5
13D
330
2
100
AcDbEntity
  8
NOTES
  6
DASHED
100
AcDbLeader
  3
STANDARD
 76
     2
 10
-4321.428713009132
 20
3191.44963567448
 30
-0.000000000001819
 10
-5255.101885362497
 20
3519.619576636292
 30
-0.0000000000011369
211
0.8279534070681071
221
-0.5607968934688508
231
0.0
210
0.0000000000000001
220
0.0000000000000001
230
1.0
213
-4.456338694853265
223
9.181923115743247
233
-7.216878364870322
1001
ACAD
1000
DSTYLE
1002
{
1070
    77
1070
     0
1070
    40
1040
10.0
1070
    41
1040
10.0
1070
    42
1040
0.625
1070
    43
1040
3.75
1070
    44
1040
1.25
1070
   140
1040
2.5
1070
   141
1040
2.5
1070
   143
1040
0.03937
1070
   147
1040
0.625
1002
}
  0
ARC
  5
13E
330
2
100
AcDbEntity
  8
0
100
AcDbCircle
 10
-2148.410305099036
 20
-98.01163982057426
 30
-3865.831103177345
 40
702.0
210
-0.7071067811865476
220
-0.408248290463863
230
0.5773502691896258
100
AcDbArc
 50
53.3546024097725
 51
126.6453975902316
  0
ARC
  5
13F
330
2
100
AcDbEntity
  8
0
100
AcDbCircle
 10
-2148.410305099036
 20
-98.01163982057392
 30
-3835.831103177346
 40
702.0
210
-0.7071067811865476
220
-0.408248290463863
230
0.5773502691896258
100
AcDbArc
 50
53.3546024097725
 51
126.6453975902316
  0
ARC
  5
140
330
2
100
AcDbEntity
  8
0
100
AcDbCircle
 10
-2148.410305099036
 20
-98.01163982057392
 30
-3835.831103177346
 40
702.0
210
-0.7071067811865476
220
-0.408248290463863
230
0.5773502691896258
100
AcDbArc
 50
323.354602409776
 51
36.64539759022662
  0
LINE
  5
141
330
2
100
AcDbEntity
  8
MOTOR
100
AcDbLine
 10
3966.958209302656
 20
4120.714399557333
 30
-3493.024123284156
 11
2080.252378395518
 21
3031.424280201459
 31
-1952.535263132073
210
0.0
220
0.816496580927726
230
0.5773502691896259
  0
LINE
  5
142
330
2
100
AcDbEntity
  8
MOTOR
100
AcDbLine
 10
2098.41003992339
 20
3233.24247478512
 30
-1884.610926301886
 11
3695.925127213226
 21
4155.568240466394
 31
-3188.976533054494
210
0.0
220
0.816496580927726
230
0.5773502691896259
  0
LINE
  5
143
330
2
100
AcDbEntity
  8
MOTOR
100
AcDbLine
 10
3737.039248031439
 20
4154.535927884852
 30
-3187.516622601068
 11
2080.252378395518
 21
3197.989582710716
 31
-1834.755808217389
210
0.0
220
0.816496580927726
230
0.5773502691896259
  0
LEADER
  5
144
330
2
100
AcDbEntity
  8
NOTES
  6
DASHED
100
AcDbLeader
  3
STANDARD
 76
     2
 10
2176.645133443518
 20
2874.598158069666
 30
-1948.234127276201
 10
2860.579981361374
 20
1905.536869951948
 30
-1948.234127276201
211
-0.1743279125714299
221
0.9846876555022348
231
0.0000000000000001
210
-0.0000000000000003
220
0.0
230
1.0
213
-3.48410753587879
223
-9.593104885546662
233
-7.216878364870326
1001
ACAD
1000
DSTYLE
1002
{
1070
    77
1070
     0
1070
    40
1040
10.0
1070
    41
1040
10.0
1070
    42
1040
0.625
1070
    43
1040
3.75
1070
    44
1040
1.25
1070
   140
1040
2.5
1070
   141
1040
2.5
1070
   143
1040
0.03937
1070
   147
1040
0.625
1002
}
  0
LINE
  5
145
330
2
100
AcDbEntity
  8
0
100
AcDbLine
 10
2080.252378395518
 20
3197.989582710716
 30
-1834.755808217389
 11
2080.252378395518
 21
3031.424280201459
 31
-1952.535263132073
210
0.0
220
0.816496580927726
230
0.5773502691896259
  0
LINE
  5
146
330
2
100
AcDbEntity
  8
0
100
AcDbLine
 10
2058.801309066149
 20
3210.374363362432
 30
-1852.270532982062
 11
2058.801309066149
 21
3043.809060853175
 31
-1970.049987896746
210
-0.7071067811865476
220
-0.408248290463863
230
0.5773502691896258
  0
ARC
  5
147
330
2
100
AcDbEntity
  8
0
100
AcDbCircle
 10
-2148.410305099036
 20
-98.01163982057426
 30
-3865.831103177345
 40
702.0
210
-0.7071067811865476
220
-0.408248290463863
230
0.5773502691896258
100
AcDbArc
 50
358.2683588616864
 51
36.64539759022662
  0
LINE
  5
148
330
2
100
AcDbEntity
  8
0
100
AcDbLine
 10
2058.801309066149
 20
3043.809060853175
 30
-1970.049987896746
 11
2080.252378395518
 21
3031.424280201459
 31
-1952.535263132073
210
-0.7071067811865476
220
-0.408248290463863
230
0.5773502691896258
  0
LINE
  5
149
330
2
100
AcDbEntity
  8
0
100
AcDbLine
 10
2058.801309066149
 20
3210.374363362432
 30
-1852.270532982062
 11
2080.252378395518
 21
3197.989582710716
 31
-1834.755808217389
210
-0.7071067811865476
220
-0.408248290463863
230
0.5773502691896258
  0
ARC
  5
14A
330
2
100
AcDbEntity
  8
0
100
AcDbCircle
 10
-2148.410305099036
 20
-98.01163982057392
 30
-3835.831103177346
 40
702.0
210
-0.7071067811865476
220
-0.408248290463863
230
0.5773502691896258
100
AcDbArc
 50
143.354602409776
 51
216.6453975902266
  0
LINE
  5
14B
330
2
100
AcDbEntity
  8
MOTOR
100
AcDbLine
 10
1322.789580411518
 20
1537.161996939068
 30
-3489.260295419294
 11
1534.921614767482
 21
1414.68750979991
 31
-3316.055214662407
210
0.7071067811865476
220
-0.408248290463863
230
0.5773502691896258
  0
LINE
  5
14C
330
2
100
AcDbEntity
  8
0
100
AcDbLine
 10
1860.402742625325
 20
3761.272234618739
 30
-2615.089925690865
 11
2593.170630210492
 21
4184.335971769548
 31
-3213.392400517786
210
-0.7071067811865476
220
-0.408248290463863
230
0.5773502691896258
  0
LINE
  5
14D
330
2
100
AcDbEntity
  8
0
100
AcDbLine
 10
3185.986225282719
 20
4113.802866353298
 30
-3551.47911182163
 11
2039.148371942522
 21
3451.675723010482
 31
-2615.089925690866
210
-0.7071067811865476
220
-0.408248290463863
230
0.5773502691896258
  0
ARC
  5
14E
330
2
100
AcDbEntity
  8
0
100
AcDbCircle
 10
-2148.410305099036
 20
-98.01163982057392
 30
-3835.831103177346
 40
702.0
210
-0.7071067811865476
220
-0.408248290463863
230
0.5773502691896258
100
AcDbArc
 50
233.3546024097724
 51
255.2487288025599
  0
LINE
  5
14F
330
2
100
AcDbEntity
  8
0
100
AcDbLine
 10
1517.00632040215
 20
2872.799319508247
 30
-2754.532769362608
 11
1661.256103764205
 21
2789.516668253619
 31
-2636.753314447924
  0
LINE
  5
150
330
2
100
AcDbEntity
  8
0
100
AcDbLine
 10
1517.006320402144
 20
2897.568880811675
 30
-2737.018044597936
 11
1661.256103764199
 21
2814.286229557048
 31
-2619.238589683253
210
-0.7071067811865476
220
-0.408248290463863
230
0.5773502691896258
  0
LINE
  5
151
330
2
100
AcDbEntity
  8
0
100
AcDbLine
 10
1661.256103764199
 20
2814.286229557048
 30
-2619.238589683253
 11
1661.256103764199
 21
2789.516668253615
 31
-2636.753314447926
210
-0.7071067811865476
220
-0.408248290463863
230
0.5773502691896258
  0
LINE
  5
152
330
2
100
AcDbEntity
  8
0
100
AcDbLine
 10
1517.006320402144
 20
2897.568880811675
 30
-2737.018044597936
 11
1517.006320402144
 21
2872.799319508244
 31
-2754.532769362609
210
-0.7071067811865476
220
-0.408248290463863
230
0.5773502691896258
  0
ARC
  5
153
330
2
100
AcDbEntity
  8
0
100
AcDbCircle
 10
-2148.410305099036
 20
-98.01163982057392
 30
-3835.831103177346
 40
702.0
210
-0.7071067811865476
220
-0.408248290463863
230
0.5773502691896258
100
AcDbArc
 50
284.7512711974394
 51
306.6453975902316
  0
ARC
  5
154
330
2
100
AcDbEntity
  8
0
100
AcDbCircle
 10
-2148.410305099036
 20
-98.01163982057392
 30
-3835.831103177346
 40
180.0
210
-0.7071067811865476
220
-0.408248290463863
230
0.5773502691896258
100
AcDbArc
 50
353.2318986313098
 51
186.7681013686876
  0
ARC
  5
155
330
2
100
AcDbEntity
  8
0
100
AcDbCircle
 10
-1797.37163801925
 20
-153.6107026382767
 30
-3865.831103177345
 40
42.40477447487534
210
-0.7071067811865476
220
-0.408248290463863
230
0.5773502691896258
100
AcDbArc
 50
210.0168767498908
 51
329.9831232501026
  0
CIRCLE
  5
156
330
2
100
AcDbEntity
  8
0
100
AcDbCircle
 10
-1797.37163801925
 20
-153.6107026382766
 30
-3835.831103177345
 40
42.40477447487534
210
-0.7071067811865476
220
-0.408248290463863
230
0.5773502691896258
  0
CIRCLE
  5
157
330
2
100
AcDbEntity
  8
0
100
AcDbCircle
 10
-1987.055540295971
 20
218.664916695224
 30
-3835.831103177345
 40
42.40477447487534
210
-0.7071067811865476
220
-0.408248290463863
230
0.5773502691896258
  0
ARC
  5
158
330
2
100
AcDbEntity
  8
0
100
AcDbCircle
 10
-1987.055540295971
 20
218.6649166952237
 30
-3865.831103177345
 40
42.40477447487534
210
-0.7071067811865476
220
-0.408248290463863
230
0.5773502691896258
100
AcDbArc
 50
210.0168767498908
 51
329.9831232501026
  0
CIRCLE
  5
159
330
2
100
AcDbEntity
  8
0
100
AcDbCircle
 10
-2399.726243283776
 20
153.3042983641666
 30
-3835.831103177345
 40
42.40477447487534
210
-0.7071067811865476
220
-0.408248290463863
230
0.5773502691896258
  0
ARC
  5
15A
330
2
100
AcDbEntity
  8
0
100
AcDbCircle
 10
-2399.726243283777
 20
153.3042983641669
 30
-3865.831103177346
 40
42.40477447487534
210
-0.7071067811865476
220
-0.408248290463863
230
0.5773502691896258
100
AcDbArc
 50
210.0168767498908
 51
329.9831232501026
  0
ARC
  5
15B
330
2
100
AcDbEntity
  8
0
100
AcDbCircle
 10
-2465.086861614834
 20
-259.3664046236379
 30
-3865.831103177345
 40
42.40477447487534
210
-0.7071067811865476
220
-0.408248290463863
230
0.5773502691896258
100
AcDbArc
 50
210.0168767498908
 51
329.9831232501026
  0
CIRCLE
  5
15C
330
2
100
AcDbEntity
  8
0
100
AcDbCircle
 10
-2465.086861614834
 20
-259.3664046236376
 30
-3835.831103177345
 40
42.40477447487534
210
-0.7071067811865476
220
-0.408248290463863
230
0.5773502691896258
  0
LINE
  5
15D
330
2
100
AcDbEntity
  8
0
100
AcDbLine
 10
1098.010045770826
 20
3765.087457861028
 30
-2636.753314447924
 11
1098.010045770829
 21
3598.522155351773
 31
-2754.532769362609
  0
LINE
  5
15E
330
2
100
AcDbEntity
  8
0
100
AcDbLine
 10
1119.461115100195
 20
3752.702677209311
 30
-2619.238589683251
 11
1119.461115100195
 21
3586.137374700055
 31
-2737.018044597935
210
-0.7071067811865476
220
-0.408248290463863
230
0.5773502691896258
  0
LINE
  5
15F
330
2
100
AcDbEntity
  8
0
100
AcDbLine
 10
1098.010045770826
 20
3598.522155351771
 30
-2754.532769362608
 11
1119.461115100195
 21
3586.137374700055
 31
-2737.018044597935
210
-0.7071067811865476
220
-0.408248290463863
230
0.5773502691896258
  0
LINE
  5
160
330
2
100
AcDbEntity
  8
0
100
AcDbLine
 10
1098.010045770826
 20
3765.087457861028
 30
-2636.753314447924
 11
1119.461115100195
 21
3752.702677209311
 31
-2619.238589683251
210
-0.7071067811865476
220
-0.408248290463863
230
0.5773502691896258
  0
SPLINE
  5
161
330
2
100
AcDbEntity
  8
NOTES
  6
DASHED
100
AcDbSpline
210
0.0000000000000033
220
-0.0000000000000038
230
1.0
 70
     8
 71
     3
 72
    10
 73
     6
 74
     0
 42
0.0000000001
 43
0.0000000001
 40
113.6817396964121
 40
113.6817396964121
 40
113.6817396964121
 40
113.6817396964121
 40
198.873774004749
 40
383.422505466728
 40
420.5047714606159
 40
420.5047714606159
 40
420.5047714606159
 40
420.5047714606159
 10
2356.785346388462
 20
4491.841716521871
 30
-13637.63889093344
 10
2426.789799426793
 20
4335.836342499777
 30
-13637.63889093344
 10
2716.936965657186
 20
3951.516529191716
 30
-13637.63889093344
 10
3478.521112523512
 20
4205.118893253145
 30
-13637.63889093344
 10
3899.770642481944
 20
4138.286775800514
 30
-13637.63889093345
 10
3966.958209302656
 20
4120.71439955733
 30
-13637.63889093345
  0
LINE
  5
162
330
2
100
AcDbEntity
  8
0
100
AcDbLine
 10
2435.997850139301
 20
4346.240213072916
 30
-2484.844519999304
 11
1661.256103764207
 21
3898.942857250816
 31
-1852.270532982066
  0
LINE
  5
163
330
2
100
AcDbEntity
  8
0
100
AcDbLine
 10
1517.006320402144
 20
4006.995069808866
 30
-1952.535263132075
 11
2356.785346388465
 21
4491.84171652187
 31
-2638.211966584722
210
-0.7071067811865476
220
-0.408248290463863
230
0.5773502691896258
  0
LINE
  5
164
330
2
100
AcDbEntity
  8
0
100
AcDbLine
 10
1661.256103764199
 20
3923.712418554238
 30
-1834.755808217391
 11
2424.311534822686
 21
4364.262677082462
 31
-2457.787958734978
210
-0.7071067811865476
220
-0.408248290463863
230
0.5773502691896258
  0
LINE
  5
165
330
2
100
AcDbEntity
  8
0
100
AcDbLine
 10
1661.256103764199
 20
3923.712418554238
 30
-1834.755808217391
 11
1517.006320402144
 21
4006.995069808866
 31
-1952.535263132075
210
-0.7071067811865476
220
-0.408248290463863
230
0.5773502691896258
  0
LINE
  5
166
330
2
100
AcDbEntity
  8
0
100
AcDbLine
 10
1517.006320402144
 20
3982.225508505433
 30
-1970.049987896747
 11
1661.256103764199
 21
3898.942857250806
 31
-1852.270532982063
210
-0.7071067811865476
220
-0.408248290463863
230
0.5773502691896258
  0
LINE
  5
167
330
2
100
AcDbEntity
  8
0
100
AcDbLine
 10
1661.256103764199
 20
3923.712418554238
 30
-1834.755808217391
 11
1661.256103764199
 21
3898.942857250806
 31
-1852.270532982063
210
-0.7071067811865476
220
-0.408248290463863
230
0.5773502691896258
  0
ARC
  5
168
330
2
100
AcDbEntity
  8
0
100
AcDbCircle
 10
-2148.410305099036
 20
-98.01163982057426
 30
-3865.831103177345
 40
702.0
210
-0.7071067811865476
220
-0.408248290463863
230
0.5773502691896258
100
AcDbArc
 50
143.354602409776
 51
181.7316411383177
  0
LINE
  5
169
330
2
100
AcDbEntity
  8
0
100
AcDbLine
 10
1517.006320402144
 20
4006.995069808866
 30
-1952.535263132075
 11
1517.006320402144
 21
3982.225508505433
 31
-1970.049987896747
210
-0.7071067811865476
220
-0.408248290463863
230
0.5773502691896258
  0
ARC
  5
16A
330
2
100
AcDbEntity
  8
MOTOR
100
AcDbCircle
 10
-2395.158670074437
 20
-4641.580614994047
 30
2114.401014521653
 40
61.95788614077082
210
0.0
220
0.816496580927726
230
0.5773502691896259
100
AcDbArc
 50
200.0220044287267
 51
339.9779955712821
  0
CIRCLE
  5
16B
330
2
100
AcDbEntity
  8
MOTOR
100
AcDbCircle
 10
-2395.158670074437
 20
-4641.580614994047
 30
2144.401014521654
 40
61.95788614077082
210
0.0
220
0.816496580927726
230
0.5773502691896259
  0
ENDSEC
  0
SECTION
  2
OBJECTS
  0
DICTIONARY
  5
7
330
0
100
AcDbDictionary
281
     1
  3
ACAD_GROUP
350
20
  3
ACAD_LAYOUT
350
B
  3
ACAD_MLINESTYLE
350
21
  3
ACAD_PLOTSETTINGS
350
22
  3
ACAD_PLOTSTYLENAME
350
6
  3
AcDbVariableDictionary
350
16C
  0
DICTIONARY
  5
20
102
{ACAD_REACTORS
330
7
102
}
330
7
100
AcDbDictionary
281
     1
  0
DICTIONARY
  5
B
102
{ACAD_REACTORS
330
7
102
}
330
7
100
AcDbDictionary
281
     1
  3
mirage
350
F
  3
Model
350
A
  0
DICTIONARY
  5
21
102
{ACAD_REACTORS
330
7
102
}
330
7
100
AcDbDictionary
281
     1
  3
STANDARD
350
25
  0
DICTIONARY
  5
22
102
{ACAD_REACTORS
330
7
102
}
330
7
100
AcDbDictionary
281
     1
  0
ACDBDICTIONARYWDFLT
  5
6
102
{ACAD_REACTORS
330
7
102
}
330
7
100
AcDbDictionary
281
     1
  3
Normal
350
5
100
AcDbDictionaryWithDefault
340
5
  0
DICTIONARY
  5
16C
102
{ACAD_REACTORS
330
7
102
}
330
7
100
AcDbDictionary
281
     1
  3
DIMASSOC
350
16E
  3
HIDETEXT
350
16D
  0
LAYOUT
  5
F
102
{ACAD_REACTORS
330
B
102
}
330
B
100
AcDbPlotSettings
  1

  2
HP LaserJet 5N
  4
A4
  6

 40
6.043083190917968
 41
6.720414161682128
 42
7.821090698242187
 43
5.027069091796875
 44
210.0579986572265
 45
296.9259948730469
 46
0.0
 47
0.0
 48
0.0
 49
0.0
140
0.0
141
0.0
142
1.0
143
1.0
 70
   688
 72
     1
 73
     1
 74
     5
  7

 75
    16
147
1.0
148
0.0
149
0.0
100
AcDbLayout
  1
mirage
 70
     1
 71
     1
 10
-5.027069091796875
 20
-6.043083190917968
 11
291.89892578125
 21
204.0149154663085
 12
0.0
 22
0.0
 32
0.0
 14
-0.0000000000000033
 24
0.0
 34
0.0
 15
304.0653720154696
 25
196.0
 35
0.0
146
0.0
 13
0.0
 23
0.0
 33
0.0
 16
1.0
 26
0.0
 36
0.0
 17
0.0
 27
1.0
 37
0.0
 76
     0
330
C
  0
LAYOUT
  5
A
102
{ACAD_REACTORS
330
B
102
}
330
B
100
AcDbPlotSettings
  1

  2
HP LaserJet 5N
  4
A4
  6

 40
6.043083190917968
 41
6.720414161682128
 42
7.821090698242187
 43
5.027069091796875
 44
210.0579986572265
 45
296.9259948730469
 46
0.0
 47
0.0
 48
-3781.536479060019
 49
-9020.140691872697
140
10420.01463243493
141
-434.0417963699451
142
1.0
143
1264.889827018862
 70
 11952
 72
     0
 73
     1
 74
     4
  7

 75
     0
147
0.0007905826884203
148
96051.02656812448
149
229111.5735735665
100
AcDbLayout
  1
Model
 70
     1
 71
     0
 10
0.0
 20
0.0
 11
12.0
 21
9.0
 12
0.0
 22
0.0
 32
0.0
 14
0.0
 24
0.0
 34
0.0
 15
0.0
 25
0.0
 35
0.0
146
0.0
 13
0.0
 23
0.0
 33
0.0
 16
1.0
 26
0.0
 36
0.0
 17
0.0
 27
1.0
 37
0.0
 76
     0
330
2
  0
MLINESTYLE
  5
25
102
{ACAD_REACTORS
330
21
102
}
330
21
100
AcDbMlineStyle
  2
STANDARD
 70
     0
  3

 62
     0
 51
90.0
 52
90.0
 71
     2
 49
0.5
 62
   256
  6
BYLAYER
 49
-0.5
 62
   256
  6
BYLAYER
  0
ACDBPLACEHOLDER
  5
5
102
{ACAD_REACTORS
330
6
102
}
330
6
  0
DICTIONARYVAR
  5
16E
102
{ACAD_REACTORS
330
16C
102
}
330
16C
100
DictionaryVariables
280
     0
  1
1
  0
DICTIONARYVAR
  5
16D
102
{ACAD_REACTORS
330
16C
102
}
330
16C
100
DictionaryVariables
280
     0
  1
1
  0
ENDSEC
  0
EOF
